  0
SECTION
  2
HEADER
  9
$ACADVER
  1
AC1009
  9
$INSBASE
 10
   0.0000
 20
   0.0000
 30
    0.0
  9
$EXTMIN
 10
 -95.0000
 20
-134.5000
 30
   0.0000
  9
$EXTMAX
 10
3087.9930
 20
 850.0000
 30
   0.0000
  9
$LTSCALE
 40
1.00
  9
$PSLTSCALE
 70
1
  0
ENDSEC
  0
SECTION
  2
TABLES
  0
TABLE
  2
LTYPE
 70
  5
  0
LTYPE
  2
AUSGEZOGEN
 70
 64
  3
AUSGEZOGEN
 72
 65
 73
  0
 40
0.0
  0
LTYPE
  2
PUNKTIERT
 70
 64
  3
Gepunktet
 72
 65
 73
  2
 40
30.0000
 49
0.0
 49
-30.0000
  0
LTYPE
  2
STRICHLIERT
 70
 64
  3
Strichliert
 72
 65
 73
  2
 40
80.0000
 49
50.0000
 49
-30.0000
  0
LTYPE
  2
STRICHPUNKT
 70
 64
  3
Strichpunktet
 72
 65
 73
  4
 40
160.0000
 49
100.0000
 49
-30.0000
 49
0.0
 49
-30.0000
  0
LTYPE
  2
STRICHPUNKTPUNKT
 70
 64
  3
Strichpunktpunktet
 72
 65
 73
  6
 40
190.0000
 49
100.0000
 49
-30.0000
 49
0.0
 49
-30.0000
 49
0.0
 49
-30.0000
  0
ENDTAB
  0
TABLE
  2
LAYER
 70
5
  0
LAYER
  2
550
 70
  0
 62
  2
  6
AUSGEZOGEN
  0
LAYER
  2
510
 70
  0
 62
  2
  6
AUSGEZOGEN
  0
LAYER
  2
0
 70
  0
 62
  1
  6
AUSGEZOGEN
  0
LAYER
  2
200
 70
  0
 62
  7
  6
AUSGEZOGEN
999
SWS-Layer-Line-Width
999
0.20
  0
LAYER
  2
400
 70
  0
 62
  4
  6
AUSGEZOGEN
999
SWS-Layer-Line-Width
999
0.30
  0
ENDTAB
  0
TABLE
  2
STYLE
 70
  1
  0
STYLE
  2
STANDARD
 70
 64
 40
0.0
 41
1.0
 50
0.0
 71
  0
 42
30.0
  3
TXT.SHX
  4

  0
ENDTAB
  0
ENDSEC
  0
SECTION
  2
ENTITIES
  0
LINE
  8
400
  6
AUSGEZOGEN
 10
 782.0000
 20
 150.0000
 11
1174.0000
 21
 716.5000
  0
LINE
  8
400
  6
AUSGEZOGEN
 10
2893.6300
 20
 716.5000
 11
1174.0000
 21
 716.5000
  0
LINE
  8
400
  6
AUSGEZOGEN
 10
 782.0000
 20
 150.0000
 11
 782.0000
 21
 225.0000
  0
LINE
  8
400
  6
AUSGEZOGEN
 10
 782.0000
 20
  75.0000
 11
 782.0000
 21
 150.0000
  0
LINE
  8
400
  6
AUSGEZOGEN
 10
 857.0000
 20
 150.0000
 11
 782.0000
 21
 150.0000
  0
LINE
  8
400
  6
AUSGEZOGEN
 10
 707.0000
 20
 150.0000
 11
 782.0000
 21
 150.0000
  0
CIRCLE
  8
400
  6
AUSGEZOGEN
 10
 782.0000
 20
 150.0000
 40
  50.0000
  0
LINE
  8
200
  6
AUSGEZOGEN
 10
 155.0000
 20
 130.0000
 11
 175.0000
 21
 160.0000
  0
LINE
  8
200
  6
AUSGEZOGEN
 10
 155.0000
 20
 160.0000
 11
 135.0000
 21
 130.0000
  0
LINE
  8
200
  6
AUSGEZOGEN
 10
 155.0000
 20
  80.0000
 11
 175.0000
 21
 110.0000
  0
LINE
  8
200
  6
AUSGEZOGEN
 10
 155.0000
 20
 110.0000
 11
 135.0000
 21
  80.0000
  0
LINE
  8
200
  6
AUSGEZOGEN
 10
 135.0000
 20
  30.0000
 11
 155.0000
 21
  60.0000
  0
LINE
  8
200
  6
AUSGEZOGEN
 10
 175.0000
 20
  60.0000
 11
 155.0000
 21
  30.0000
  0
LINE
  8
200
  6
AUSGEZOGEN
 10
 775.0000
 20
  30.0000
 11
 795.0000
 21
  60.0000
  0
LINE
  8
200
  6
AUSGEZOGEN
 10
 815.0000
 20
  60.0000
 11
 795.0000
 21
  30.0000
  0
LINE
  8
200
  6
AUSGEZOGEN
 10
 815.0000
 20
 110.0000
 11
 795.0000
 21
  80.0000
  0
LINE
  8
200
  6
AUSGEZOGEN
 10
 775.0000
 20
  80.0000
 11
 795.0000
 21
 110.0000
  0
LINE
  8
200
  6
AUSGEZOGEN
 10
 815.0000
 20
 160.0000
 11
 795.0000
 21
 130.0000
  0
LINE
  8
200
  6
AUSGEZOGEN
 10
 775.0000
 20
 130.0000
 11
 795.0000
 21
 160.0000
  0
LINE
  8
200
  6
AUSGEZOGEN
 10
 735.0000
 20
  80.0000
 11
 755.0000
 21
 110.0000
  0
LINE
  8
200
  6
AUSGEZOGEN
 10
 735.0000
 20
 110.0000
 11
 715.0000
 21
  80.0000
  0
LINE
  8
200
  6
AUSGEZOGEN
 10
 695.0000
 20
  80.0000
 11
 715.0000
 21
 110.0000
  0
LINE
  8
200
  6
AUSGEZOGEN
 10
 695.0000
 20
 110.0000
 11
 675.0000
 21
  80.0000
  0
LINE
  8
200
  6
AUSGEZOGEN
 10
 655.0000
 20
  80.0000
 11
 675.0000
 21
 110.0000
  0
LINE
  8
200
  6
AUSGEZOGEN
 10
 655.0000
 20
 110.0000
 11
 635.0000
 21
  80.0000
  0
LINE
  8
200
  6
AUSGEZOGEN
 10
 615.0000
 20
  80.0000
 11
 635.0000
 21
 110.0000
  0
LINE
  8
200
  6
AUSGEZOGEN
 10
 615.0000
 20
 110.0000
 11
 595.0000
 21
  80.0000
  0
LINE
  8
200
  6
AUSGEZOGEN
 10
 575.0000
 20
  80.0000
 11
 595.0000
 21
 110.0000
  0
LINE
  8
200
  6
AUSGEZOGEN
 10
 575.0000
 20
 110.0000
 11
 555.0000
 21
  80.0000
  0
LINE
  8
200
  6
AUSGEZOGEN
 10
 555.0000
 20
  30.0000
 11
 575.0000
 21
  60.0000
  0
LINE
  8
200
  6
AUSGEZOGEN
 10
 595.0000
 20
  60.0000
 11
 575.0000
 21
  30.0000
  0
LINE
  8
200
  6
AUSGEZOGEN
 10
 595.0000
 20
  30.0000
 11
 615.0000
 21
  60.0000
  0
LINE
  8
200
  6
AUSGEZOGEN
 10
 635.0000
 20
  60.0000
 11
 615.0000
 21
  30.0000
  0
LINE
  8
200
  6
AUSGEZOGEN
 10
 635.0000
 20
  30.0000
 11
 655.0000
 21
  60.0000
  0
LINE
  8
200
  6
AUSGEZOGEN
 10
 675.0000
 20
  60.0000
 11
 655.0000
 21
  30.0000
  0
LINE
  8
200
  6
AUSGEZOGEN
 10
 675.0000
 20
  30.0000
 11
 695.0000
 21
  60.0000
  0
LINE
  8
200
  6
AUSGEZOGEN
 10
 715.0000
 20
  60.0000
 11
 695.0000
 21
  30.0000
  0
LINE
  8
200
  6
AUSGEZOGEN
 10
 715.0000
 20
  30.0000
 11
 735.0000
 21
  60.0000
  0
LINE
  8
200
  6
AUSGEZOGEN
 10
 755.0000
 20
  60.0000
 11
 735.0000
 21
  30.0000
  0
LINE
  8
200
  6
AUSGEZOGEN
 10
 755.0000
 20
  30.0000
 11
 775.0000
 21
  60.0000
  0
LINE
  8
200
  6
AUSGEZOGEN
 10
 775.0000
 20
 110.0000
 11
 755.0000
 21
  80.0000
  0
LINE
  8
200
  6
AUSGEZOGEN
 10
 775.0000
 20
 160.0000
 11
 755.0000
 21
 130.0000
  0
LINE
  8
200
  6
AUSGEZOGEN
 10
 735.0000
 20
 130.0000
 11
 755.0000
 21
 160.0000
  0
LINE
  8
200
  6
AUSGEZOGEN
 10
 735.0000
 20
 160.0000
 11
 715.0000
 21
 130.0000
  0
LINE
  8
200
  6
AUSGEZOGEN
 10
 695.0000
 20
 130.0000
 11
 715.0000
 21
 160.0000
  0
LINE
  8
200
  6
AUSGEZOGEN
 10
 695.0000
 20
 160.0000
 11
 675.0000
 21
 130.0000
  0
LINE
  8
200
  6
AUSGEZOGEN
 10
 655.0000
 20
 130.0000
 11
 675.0000
 21
 160.0000
  0
LINE
  8
200
  6
AUSGEZOGEN
 10
 655.0000
 20
 160.0000
 11
 635.0000
 21
 130.0000
  0
LINE
  8
200
  6
AUSGEZOGEN
 10
 615.0000
 20
 130.0000
 11
 635.0000
 21
 160.0000
  0
LINE
  8
200
  6
AUSGEZOGEN
 10
 615.0000
 20
 160.0000
 11
 595.0000
 21
 130.0000
  0
LINE
  8
200
  6
AUSGEZOGEN
 10
 575.0000
 20
 130.0000
 11
 595.0000
 21
 160.0000
  0
LINE
  8
200
  6
AUSGEZOGEN
 10
 575.0000
 20
 160.0000
 11
 555.0000
 21
 130.0000
  0
LINE
  8
200
  6
AUSGEZOGEN
 10
 195.0000
 20
  80.0000
 11
 215.0000
 21
 110.0000
  0
LINE
  8
200
  6
AUSGEZOGEN
 10
 235.0000
 20
 110.0000
 11
 215.0000
 21
  80.0000
  0
LINE
  8
200
  6
AUSGEZOGEN
 10
 235.0000
 20
  80.0000
 11
 255.0000
 21
 110.0000
  0
LINE
  8
200
  6
AUSGEZOGEN
 10
 275.0000
 20
 110.0000
 11
 255.0000
 21
  80.0000
  0
LINE
  8
200
  6
AUSGEZOGEN
 10
 275.0000
 20
  80.0000
 11
 295.0000
 21
 110.0000
  0
LINE
  8
200
  6
AUSGEZOGEN
 10
 315.0000
 20
 110.0000
 11
 295.0000
 21
  80.0000
  0
LINE
  8
200
  6
AUSGEZOGEN
 10
 315.0000
 20
  80.0000
 11
 335.0000
 21
 110.0000
  0
LINE
  8
200
  6
AUSGEZOGEN
 10
 355.0000
 20
 110.0000
 11
 335.0000
 21
  80.0000
  0
LINE
  8
200
  6
AUSGEZOGEN
 10
 375.0000
 20
  80.0000
 11
 395.0000
 21
 110.0000
  0
LINE
  8
200
  6
AUSGEZOGEN
 10
 375.0000
 20
 110.0000
 11
 355.0000
 21
  80.0000
  0
LINE
  8
200
  6
AUSGEZOGEN
 10
 355.0000
 20
  30.0000
 11
 375.0000
 21
  60.0000
  0
LINE
  8
200
  6
AUSGEZOGEN
 10
 355.0000
 20
  60.0000
 11
 335.0000
 21
  30.0000
  0
LINE
  8
200
  6
AUSGEZOGEN
 10
 315.0000
 20
  30.0000
 11
 335.0000
 21
  60.0000
  0
LINE
  8
200
  6
AUSGEZOGEN
 10
 315.0000
 20
  60.0000
 11
 295.0000
 21
  30.0000
  0
LINE
  8
200
  6
AUSGEZOGEN
 10
 275.0000
 20
  30.0000
 11
 295.0000
 21
  60.0000
  0
LINE
  8
200
  6
AUSGEZOGEN
 10
 275.0000
 20
  60.0000
 11
 255.0000
 21
  30.0000
  0
LINE
  8
200
  6
AUSGEZOGEN
 10
 235.0000
 20
  30.0000
 11
 255.0000
 21
  60.0000
  0
LINE
  8
200
  6
AUSGEZOGEN
 10
 235.0000
 20
  60.0000
 11
 215.0000
 21
  30.0000
  0
LINE
  8
200
  6
AUSGEZOGEN
 10
 195.0000
 20
  30.0000
 11
 215.0000
 21
  60.0000
  0
LINE
  8
200
  6
AUSGEZOGEN
 10
 195.0000
 20
  60.0000
 11
 175.0000
 21
  30.0000
  0
LINE
  8
200
  6
AUSGEZOGEN
 10
 195.0000
 20
 110.0000
 11
 175.0000
 21
  80.0000
  0
LINE
  8
200
  6
AUSGEZOGEN
 10
 195.0000
 20
 160.0000
 11
 175.0000
 21
 130.0000
  0
LINE
  8
200
  6
AUSGEZOGEN
 10
 195.0000
 20
 130.0000
 11
 215.0000
 21
 160.0000
  0
LINE
  8
200
  6
AUSGEZOGEN
 10
 235.0000
 20
 160.0000
 11
 215.0000
 21
 130.0000
  0
LINE
  8
200
  6
AUSGEZOGEN
 10
 235.0000
 20
 130.0000
 11
 255.0000
 21
 160.0000
  0
LINE
  8
200
  6
AUSGEZOGEN
 10
 275.0000
 20
 160.0000
 11
 255.0000
 21
 130.0000
  0
LINE
  8
200
  6
AUSGEZOGEN
 10
 275.0000
 20
 130.0000
 11
 295.0000
 21
 160.0000
  0
LINE
  8
200
  6
AUSGEZOGEN
 10
 315.0000
 20
 160.0000
 11
 295.0000
 21
 130.0000
  0
LINE
  8
200
  6
AUSGEZOGEN
 10
 315.0000
 20
 130.0000
 11
 335.0000
 21
 160.0000
  0
LINE
  8
200
  6
AUSGEZOGEN
 10
 355.0000
 20
 160.0000
 11
 335.0000
 21
 130.0000
  0
LINE
  8
200
  6
AUSGEZOGEN
 10
 355.0000
 20
 130.0000
 11
 375.0000
 21
 160.0000
  0
LINE
  8
200
  6
AUSGEZOGEN
 10
 395.0000
 20
 160.0000
 11
 375.0000
 21
 130.0000
  0
LINE
  8
200
  6
AUSGEZOGEN
 10
 375.0000
 20
  30.0000
 11
 395.0000
 21
  60.0000
  0
LINE
  8
200
  6
AUSGEZOGEN
 10
 950.0000
 20
 800.0000
 11
   0.0000
 21
 800.0000
  0
LINE
  8
200
  6
AUSGEZOGEN
 10
   0.0000
 20
   0.0000
 11
   0.0000
 21
 850.0000
  0
LINE
  8
200
  6
AUSGEZOGEN
 10
 950.0000
 20
 850.0000
 11
   0.0000
 21
 850.0000
  0
LINE
  8
200
  6
AUSGEZOGEN
 10
 950.0000
 20
   0.0000
 11
 950.0000
 21
 850.0000
  0
LINE
  8
200
  6
AUSGEZOGEN
 10
   0.0000
 20
   0.0000
 11
 950.0000
 21
   0.0000
  0
LINE
  8
200
  6
AUSGEZOGEN
 10
  60.0000
 20
 495.0000
 11
  20.0000
 21
 495.0000
  0
LINE
  8
200
  6
AUSGEZOGEN
 10
  60.0000
 20
 490.0000
 11
  60.0000
 21
 495.0000
  0
LINE
  8
200
  6
AUSGEZOGEN
 10
 440.0000
 20
 490.0000
 11
  20.0000
 21
 490.0000
  0
LINE
  8
200
  6
AUSGEZOGEN
 10
 440.0000
 20
 210.0000
 11
 440.0000
 21
 490.0000
  0
LINE
  8
200
  6
AUSGEZOGEN
 10
  20.0000
 20
 495.0000
 11
  20.0000
 21
 205.0000
  0
LINE
  8
200
  6
AUSGEZOGEN
 10
 440.0000
 20
 210.0000
 11
  20.0000
 21
 210.0000
  0
LINE
  8
200
  6
AUSGEZOGEN
 10
  60.0000
 20
 205.0000
 11
  60.0000
 21
 210.0000
  0
LINE
  8
200
  6
AUSGEZOGEN
 10
  20.0000
 20
 205.0000
 11
  60.0000
 21
 205.0000
  0
LINE
  8
200
  6
AUSGEZOGEN
 10
  60.0000
 20
 795.0000
 11
  20.0000
 21
 795.0000
  0
LINE
  8
200
  6
AUSGEZOGEN
 10
  60.0000
 20
 790.0000
 11
  60.0000
 21
 795.0000
  0
LINE
  8
200
  6
AUSGEZOGEN
 10
  60.0000
 20
 505.0000
 11
  60.0000
 21
 510.0000
  0
LINE
  8
200
  6
AUSGEZOGEN
 10
  20.0000
 20
 505.0000
 11
  60.0000
 21
 505.0000
  0
LINE
  8
200
  6
AUSGEZOGEN
 10
  20.0000
 20
 795.0000
 11
  20.0000
 21
 505.0000
  0
LINE
  8
200
  6
AUSGEZOGEN
 10
 440.0000
 20
 790.0000
 11
  20.0000
 21
 790.0000
  0
LINE
  8
200
  6
AUSGEZOGEN
 10
 440.0000
 20
 510.0000
 11
 440.0000
 21
 790.0000
  0
LINE
  8
200
  6
AUSGEZOGEN
 10
  20.0000
 20
 510.0000
 11
 440.0000
 21
 510.0000
  0
LINE
  8
200
  6
AUSGEZOGEN
 10
 510.0000
 20
 790.0000
 11
 510.0000
 21
 510.0000
  0
LINE
  8
200
  6
AUSGEZOGEN
 10
 930.0000
 20
 510.0000
 11
 510.0000
 21
 510.0000
  0
LINE
  8
200
  6
AUSGEZOGEN
 10
 890.0000
 20
 505.0000
 11
 890.0000
 21
 510.0000
  0
LINE
  8
200
  6
AUSGEZOGEN
 10
 930.0000
 20
 505.0000
 11
 890.0000
 21
 505.0000
  0
LINE
  8
200
  6
AUSGEZOGEN
 10
 930.0000
 20
 795.0000
 11
 930.0000
 21
 505.0000
  0
LINE
  8
200
  6
AUSGEZOGEN
 10
 890.0000
 20
 795.0000
 11
 930.0000
 21
 795.0000
  0
LINE
  8
200
  6
AUSGEZOGEN
 10
 890.0000
 20
 790.0000
 11
 890.0000
 21
 795.0000
  0
LINE
  8
200
  6
AUSGEZOGEN
 10
 510.0000
 20
 790.0000
 11
 930.0000
 21
 790.0000
  0
LINE
  8
200
  6
AUSGEZOGEN
 10
 930.0000
 20
 495.0000
 11
 890.0000
 21
 495.0000
  0
LINE
  8
200
  6
AUSGEZOGEN
 10
 890.0000
 20
 490.0000
 11
 890.0000
 21
 495.0000
  0
LINE
  8
200
  6
AUSGEZOGEN
 10
 890.0000
 20
 205.0000
 11
 890.0000
 21
 210.0000
  0
LINE
  8
200
  6
AUSGEZOGEN
 10
 930.0000
 20
 205.0000
 11
 890.0000
 21
 205.0000
  0
LINE
  8
200
  6
AUSGEZOGEN
 10
 930.0000
 20
 495.0000
 11
 930.0000
 21
 205.0000
  0
LINE
  8
200
  6
AUSGEZOGEN
 10
 510.0000
 20
 490.0000
 11
 930.0000
 21
 490.0000
  0
LINE
  8
200
  6
AUSGEZOGEN
 10
 510.0000
 20
 210.0000
 11
 510.0000
 21
 490.0000
  0
LINE
  8
200
  6
AUSGEZOGEN
 10
 930.0000
 20
 210.0000
 11
 510.0000
 21
 210.0000
  0
TEXT
  8
400
 10
1187.5000
 20
 730.0000
 40
  45.0000
  1
EZ: 230V 50Hz, Kabellänge 2,5m mit Schukostecker 0,32kW (OKFF 150mm)
 50
   0.0000
 41
   0.6000
  7
STANDARD
  0
ATTDEF
  8
550
 10
10.0
 20
100.0
 30
0.0
 40
30
  1
CCO-KT95-4
  2
CCO-KT95-4V
  3
HKI-Nummer
 70
1
  0
TEXT
  8
510
 10
10.0
 20
-45.0
 30
0.0
 40
30
  1
CCO-KT95-4
 50
0.0
 41
1.0
  7
STANDARD
  0
ENDSEC
  0
EOF
