  0
SECTION
  2
HEADER
  9
$ACADVER
  1
AC1009
  9
$INSBASE
 10
   0.0000
 20
 700.0000
 30
    0.0
  9
$EXTMIN
 10
 -95.0000
 20
-119.5000
 30
   0.0000
  9
$EXTMAX
 10
3087.9930
 20
 700.0000
 30
   0.0000
  9
$LTSCALE
 40
1.00
  9
$PSLTSCALE
 70
1
  0
ENDSEC
  0
SECTION
  2
TABLES
  0
TABLE
  2
LTYPE
 70
  5
  0
LTYPE
  2
AUSGEZOGEN
 70
 64
  3
AUSGEZOGEN
 72
 65
 73
  0
 40
0.0
  0
LTYPE
  2
PUNKTIERT
 70
 64
  3
Gepunktet
 72
 65
 73
  2
 40
30.0000
 49
0.0
 49
-30.0000
  0
LTYPE
  2
STRICHLIERT
 70
 64
  3
Strichliert
 72
 65
 73
  2
 40
80.0000
 49
50.0000
 49
-30.0000
  0
LTYPE
  2
STRICHPUNKT
 70
 64
  3
Strichpunktet
 72
 65
 73
  4
 40
160.0000
 49
100.0000
 49
-30.0000
 49
0.0
 49
-30.0000
  0
LTYPE
  2
STRICHPUNKTPUNKT
 70
 64
  3
Strichpunktpunktet
 72
 65
 73
  6
 40
190.0000
 49
100.0000
 49
-30.0000
 49
0.0
 49
-30.0000
 49
0.0
 49
-30.0000
  0
ENDTAB
  0
TABLE
  2
LAYER
 70
5
  0
LAYER
  2
550
 70
  0
 62
  2
  6
AUSGEZOGEN
  0
LAYER
  2
510
 70
  0
 62
  2
  6
AUSGEZOGEN
  0
LAYER
  2
0
 70
  0
 62
  1
  6
AUSGEZOGEN
  0
LAYER
  2
200
 70
  0
 62
  7
  6
AUSGEZOGEN
999
SWS-Layer-Line-Width
999
0.20
  0
LAYER
  2
400
 70
  0
 62
  4
  6
AUSGEZOGEN
999
SWS-Layer-Line-Width
999
0.30
  0
ENDTAB
  0
TABLE
  2
STYLE
 70
  1
  0
STYLE
  2
STANDARD
 70
 64
 40
0.0
 41
1.0
 50
0.0
 71
  0
 42
30.0
  3
TXT.SHX
  4

  0
ENDTAB
  0
ENDSEC
  0
SECTION
  2
ENTITIES
  0
LINE
  8
400
  6
AUSGEZOGEN
 10
 782.0000
 20
 580.0000
 11
1174.0000
 21
 566.5000
  0
LINE
  8
400
  6
AUSGEZOGEN
 10
2893.6300
 20
 566.5000
 11
1174.0000
 21
 566.5000
  0
LINE
  8
400
  6
AUSGEZOGEN
 10
 782.0000
 20
 505.0000
 11
 782.0000
 21
 580.0000
  0
LINE
  8
400
  6
AUSGEZOGEN
 10
 782.0000
 20
 655.0000
 11
 782.0000
 21
 580.0000
  0
LINE
  8
400
  6
AUSGEZOGEN
 10
 707.0000
 20
 580.0000
 11
 782.0000
 21
 580.0000
  0
LINE
  8
400
  6
AUSGEZOGEN
 10
 857.0000
 20
 580.0000
 11
 782.0000
 21
 580.0000
  0
CIRCLE
  8
400
  6
AUSGEZOGEN
 10
 782.0000
 20
 580.0000
 40
  50.0000
  0
LINE
  8
200
  6
AUSGEZOGEN
 10
   0.0000
 20
   0.0000
 11
 950.0000
 21
   0.0000
  0
LINE
  8
200
  6
AUSGEZOGEN
 10
 950.0000
 20
 700.0000
 11
   0.0000
 21
 700.0000
  0
LINE
  8
200
  6
AUSGEZOGEN
 10
 950.0000
 20
   0.0000
 11
 950.0000
 21
 700.0000
  0
LINE
  8
200
  6
AUSGEZOGEN
 10
   0.0000
 20
 700.0000
 11
   0.0000
 21
   0.0000
  0
TEXT
  8
400
 10
1187.5000
 20
 580.0000
 40
  45.0000
  1
EZ: 230V 50Hz, Kabellänge 2,5m mit Schukostecker 0,32kW (OKFF 150mm)
 50
   0.0000
 41
   0.6000
  7
STANDARD
  0
ATTDEF
  8
550
 10
10.0
 20
100.0
 30
0.0
 40
30
  1
CCO-KT95
  2
CCO-KT95D
  3
HKI-Nummer
 70
1
  0
TEXT
  8
510
 10
10.0
 20
-45.0
 30
0.0
 40
30
  1
CCO-KT95
 50
0.0
 41
1.0
  7
STANDARD
  0
ENDSEC
  0
EOF
