  0
SECTION
  2
HEADER
  9
$ACADVER
  1
AC1009
  9
$INSBASE
 10
0.0
 20
0.0
 30
0.0
  9
$EXTMIN
 10
-677.40001116568055
 20
-200.22419598562229
 30
-0.000000000000013
  9
$EXTMAX
 10
3066.5491608307152
 20
865.92053442457166
 30
0.0000000000000023
  9
$LIMMIN
 10
0.0
 20
0.0
  9
$LIMMAX
 10
12.0
 20
9.0
  9
$ORTHOMODE
 70
     1
  9
$REGENMODE
 70
     1
  9
$FILLMODE
 70
     1
  9
$QTEXTMODE
 70
     0
  9
$MIRRTEXT
 70
     0
  9
$DRAGMODE
 70
     2
  9
$LTSCALE
 40
1.0
  9
$OSMODE
 70
    39
  9
$ATTMODE
 70
     1
  9
$TEXTSIZE
 40
30.0
  9
$TRACEWID
 40
0.05
  9
$TEXTSTYLE
  7
STANDARD
  9
$CLAYER
  8
0
  9
$CELTYPE
  6
CONTINUOUS
  9
$CECOLOR
 62
   256
  9
$DIMSCALE
 40
1.0
  9
$DIMASZ
 40
0.18
  9
$DIMEXO
 40
0.0625
  9
$DIMDLI
 40
0.38
  9
$DIMRND
 40
0.0
  9
$DIMDLE
 40
0.0
  9
$DIMEXE
 40
0.18
  9
$DIMTP
 40
0.0
  9
$DIMTM
 40
0.0
  9
$DIMTXT
 40
0.18
  9
$DIMCEN
 40
0.09
  9
$DIMTSZ
 40
0.0
  9
$DIMTOL
 70
     0
  9
$DIMLIM
 70
     0
  9
$DIMTIH
 70
     1
  9
$DIMTOH
 70
     1
  9
$DIMSE1
 70
     0
  9
$DIMSE2
 70
     0
  9
$DIMTAD
 70
     0
  9
$DIMZIN
 70
     0
  9
$DIMBLK
  1

  9
$DIMASO
 70
     1
  9
$DIMSHO
 70
     1
  9
$DIMPOST
  1

  9
$DIMAPOST
  1

  9
$DIMALT
 70
     0
  9
$DIMALTD
 70
     2
  9
$DIMALTF
 40
25.399999999999999
  9
$DIMLFAC
 40
1.0
  9
$DIMTOFL
 70
     0
  9
$DIMTVP
 40
0.0
  9
$DIMTIX
 70
     0
  9
$DIMSOXD
 70
     0
  9
$DIMSAH
 70
     0
  9
$DIMBLK1
  1

  9
$DIMBLK2
  1

  9
$DIMSTYLE
  2
STANDARD
  9
$DIMCLRD
 70
     0
  9
$DIMCLRE
 70
     0
  9
$DIMCLRT
 70
     0
  9
$DIMTFAC
 40
1.0
  9
$DIMGAP
 40
0.09
  9
$LUNITS
 70
     2
  9
$LUPREC
 70
     4
  9
$SKETCHINC
 40
0.1
  9
$FILLETRAD
 40
0.0
  9
$AUNITS
 70
     0
  9
$AUPREC
 70
     0
  9
$MENU
  1
.
  9
$ELEVATION
 40
0.0
  9
$PELEVATION
 40
0.0
  9
$THICKNESS
 40
0.0
  9
$LIMCHECK
 70
     0
  9
$BLIPMODE
 70
     0
  9
$CHAMFERA
 40
0.0
  9
$CHAMFERB
 40
0.0
  9
$SKPOLY
 70
     0
  9
$TDCREATE
 40
2457921.3416380091
  9
$TDUPDATE
 40
2458387.399009977
  9
$TDINDWG
 40
0.1210746181
  9
$TDUSRTIMER
 40
0.1210714352
  9
$USRTIMER
 70
     1
  9
$ANGBASE
 50
0.0
  9
$ANGDIR
 70
     0
  9
$PDMODE
 70
     0
  9
$PDSIZE
 40
0.0
  9
$PLINEWID
 40
0.0
  9
$COORDS
 70
     1
  9
$SPLFRAME
 70
     0
  9
$SPLINETYPE
 70
     6
  9
$SPLINESEGS
 70
     8
  9
$ATTDIA
 70
     1
  9
$ATTREQ
 70
     1
  9
$HANDLING
 70
     1
  9
$HANDSEED
  5
A77
  9
$SURFTAB1
 70
     6
  9
$SURFTAB2
 70
     6
  9
$SURFTYPE
 70
     6
  9
$SURFU
 70
     6
  9
$SURFV
 70
     6
  9
$UCSNAME
  2

  9
$UCSORG
 10
0.0
 20
0.0
 30
0.0
  9
$UCSXDIR
 10
1.0
 20
0.0
 30
0.0
  9
$UCSYDIR
 10
0.0
 20
1.0
 30
0.0
  9
$PUCSNAME
  2

  9
$PUCSORG
 10
0.0
 20
0.0
 30
0.0
  9
$PUCSXDIR
 10
1.0
 20
0.0
 30
0.0
  9
$PUCSYDIR
 10
0.0
 20
1.0
 30
0.0
  9
$USERI1
 70
     0
  9
$USERI2
 70
     0
  9
$USERI3
 70
     0
  9
$USERI4
 70
     0
  9
$USERI5
 70
     0
  9
$USERR1
 40
0.0
  9
$USERR2
 40
0.0
  9
$USERR3
 40
0.0
  9
$USERR4
 40
0.0
  9
$USERR5
 40
0.0
  9
$WORLDVIEW
 70
     1
  9
$SHADEDGE
 70
     3
  9
$SHADEDIF
 70
    70
  9
$TILEMODE
 70
     1
  9
$MAXACTVP
 70
    64
  9
$PLIMCHECK
 70
     0
  9
$PEXTMIN
 10
1.0000000000000000E+020
 20
1.0000000000000000E+020
 30
1.0000000000000000E+020
  9
$PEXTMAX
 10
-1.0000000000000000E+020
 20
-1.0000000000000000E+020
 30
-1.0000000000000000E+020
  9
$PLIMMIN
 10
0.0
 20
0.0
  9
$PLIMMAX
 10
12.0
 20
9.0
  9
$UNITMODE
 70
     0
  9
$VISRETAIN
 70
     1
  9
$PLINEGEN
 70
     0
  9
$PSLTSCALE
 70
     1
  0
ENDSEC
  0
SECTION
  2
TABLES
  0
TABLE
  2
VPORT
 70
     1
  0
VPORT
  2
*ACTIVE
 70
     0
 10
0.0
 20
0.0
 11
1.0
 21
1.0
 12
877.29156063413302
 22
333.35474512426367
 13
0.0
 23
0.0
 14
1.0
 24
1.0
 15
0.0
 25
0.0
 16
0.0
 26
0.0
 36
1.0
 17
0.0
 27
0.0
 37
0.0
 40
2691.6695774794312
 41
2.2323232323232318
 42
50.0
 43
0.0
 44
0.0
 50
0.0
 51
0.0
 71
     0
 72
   100
 73
     1
 74
     1
 75
     0
 76
     0
 77
     0
 78
     0
  0
ENDTAB
  0
TABLE
  2
LTYPE
 70
     7
  0
LTYPE
  2
CONTINUOUS
 70
     0
  3
Solid line
 72
    65
 73
     0
 40
0.0
  0
LTYPE
  2
AUSGEZOGEN
 70
     0
  3
AUSGEZOGEN
 72
    65
 73
     0
 40
0.0
  0
LTYPE
  2
PUNKTIERT
 70
     0
  3
Gepunktet
 72
    65
 73
     2
 40
30.0
 49
0.0
 49
-30.0
  0
LTYPE
  2
STRICHLIERT
 70
     0
  3
Strichliert
 72
    65
 73
     2
 40
80.0
 49
50.0
 49
-30.0
  0
LTYPE
  2
STRICHPUNKT
 70
     0
  3
Strichpunktet
 72
    65
 73
     4
 40
160.0
 49
100.0
 49
-30.0
 49
0.0
 49
-30.0
  0
LTYPE
  2
STRICHPUNKTPUNKT
 70
     0
  3
Strichpunktpunktet
 72
    65
 73
     6
 40
190.0
 49
100.0
 49
-30.0
 49
0.0
 49
-30.0
 49
0.0
 49
-30.0
  0
ENDTAB
  0
TABLE
  2
LAYER
 70
     8
  0
LAYER
  2
0
 70
     0
 62
     1
  6
AUSGEZOGEN
  0
LAYER
  2
550
 70
     0
 62
     2
  6
AUSGEZOGEN
  0
LAYER
  2
510
 70
     0
 62
     2
  6
AUSGEZOGEN
  0
LAYER
  2
200
 70
     0
 62
     7
  6
AUSGEZOGEN
  0
LAYER
  2
400
 70
     0
 62
     4
  6
AUSGEZOGEN
  0
LAYER
  2
01TNR-01
 70
     0
 62
     2
  6
CONTINUOUS
  0
LAYER
  2
02TNR-01
 70
     0
 62
     1
  6
CONTINUOUS
  0
LAYER
  2
DEFPOINTS
 70
     0
 62
     7
  6
CONTINUOUS
  0
ENDTAB
  0
TABLE
  2
STYLE
 70
     4
  0
STYLE
  2
STANDARD
 70
     0
 40
0.0
 41
1.0
 50
0.0
 71
     0
 42
30.0
  3
TXT.SHX
  4

  0
STYLE
  2
ANNOTATIVE
 70
     0
 40
0.0
 41
1.0
 50
0.0
 71
     0
 42
0.2
  3
txt
  4

  0
STYLE
  2
ROMANS
 70
     0
 40
0.0
 41
1.0
 50
0.0
 71
     0
 42
25.0
  3
ROMANS.shx
  4

  0
ENDTAB
  0
TABLE
  2
VIEW
 70
     0
  0
ENDTAB
  0
TABLE
  2
UCS
 70
     0
  0
ENDTAB
  0
TABLE
  2
APPID
 70
     6
  0
APPID
  2
ACAD
 70
     0
  0
APPID
  2
ACADANNOTATIVE
 70
     0
  0
APPID
  2
ACAD_EXEMPT_FROM_CAD_STANDARDS
 70
     0
  0
APPID
  2
ACAD_PSEXT
 70
     0
  0
APPID
  2
ACAD_NAV_VCDISPLAY
 70
     0
  0
APPID
  2
ACAD_MLEADERVER
 70
     0
  0
ENDTAB
  0
TABLE
  2
DIMSTYLE
 70
     4
  0
DIMSTYLE
  2
STANDARD
 70
     0
  3

  4

  5

  6

  7

 40
1.0
 41
0.18
 42
0.0625
 43
0.38
 44
0.18
 45
0.0
 46
0.0
 47
0.0
 48
0.0
140
0.18
141
0.09
142
0.0
143
25.399999999999999
144
1.0
145
0.0
146
1.0
147
0.09
 71
     0
 72
     0
 73
     1
 74
     1
 75
     0
 76
     0
 77
     0
 78
     0
170
     0
171
     2
172
     0
173
     0
174
     0
175
     0
176
     0
177
     0
178
     0
  0
DIMSTYLE
  2
ANNOTATIVE
 70
     0
  3

  4

  5

  6

  7

 40
1.0
 41
0.18
 42
0.0625
 43
0.38
 44
0.18
 45
0.0
 46
0.0
 47
0.0
 48
0.0
140
0.18
141
0.09
142
0.0
143
25.399999999999999
144
1.0
145
0.0
146
1.0
147
0.09
 71
     0
 72
     0
 73
     1
 74
     1
 75
     0
 76
     0
 77
     0
 78
     0
170
     0
171
     2
172
     0
173
     0
174
     0
175
     0
176
     0
177
     0
178
     0
  0
DIMSTYLE
  2
KONSTRUKTION-10000-10-250
 70
     0
  3

  4

  5

  6

  7

 40
10.0
 41
2.5
 42
1.0
 43
0.0
 44
1.0
 45
0.0
 46
0.0
 47
0.0
 48
0.0
140
2.5
141
0.0
142
0.0
143
2.54
144
1.0
145
0.0
146
0.875
147
0.0
 71
     0
 72
     0
 73
     0
 74
     0
 75
     0
 76
     0
 77
     1
 78
     8
170
     0
171
     2
172
     1
173
     1
174
     0
175
     0
176
   256
177
   256
178
   256
  0
ENDTAB
  0
ENDSEC
  0
SECTION
  2
BLOCKS
  0
BLOCK
  8
0
  2
$MODEL_SPACE
 70
     0
 10
0.0
 20
0.0
 30
0.0
  3
$MODEL_SPACE
  1

  0
ENDBLK
  5
71
  8
0
  0
BLOCK
 67
     1
  8
0
  2
$PAPER_SPACE
 70
     0
 10
0.0
 20
0.0
 30
0.0
  3
$PAPER_SPACE
  1

  0
ENDBLK
  5
6D
 67
     1
  8
0
  0
BLOCK
  8
0
  2
A$C65EE3E40
 70
     0
 10
0.0
 20
0.0
 30
0.0
  3
A$C65EE3E40
  1

  0
LINE
  5
129
  8
02TNR-01
 10
133.36273673215689
 20
393.30029324848152
 30
0.0
 11
136.400206357157
 21
393.30029324848238
 31
0.0
  0
LINE
  5
12A
  8
02TNR-01
 10
195.21439170400569
 20
323.33702678926602
 30
0.0
 11
16.550049022798252
 21
323.33702678926602
 31
0.0
  0
ARC
  5
12B
  8
02TNR-01
 10
195.21439170400569
 20
325.33702678926602
 30
0.0
 40
2.0
 50
270.0
 51
0.0
  0
LINE
  5
12C
  8
02TNR-01
 10
195.21439170400569
 20
393.30029324848238
 30
0.0
 11
4.3959531876507736
 21
393.30029324848238
 31
0.0
  0
ARC
  5
12D
  8
02TNR-01
 10
195.21439170400569
 20
391.30029324848238
 30
0.0
 40
2.0
 50
0.0
 51
90.0
  0
LINE
  5
12E
  8
02TNR-01
 10
2.1797375691039611
 20
393.30029324848238
 30
0.0
 11
2.1760559085005231
 21
393.30029324848238
 31
0.0
  0
LINE
  5
12F
  8
02TNR-01
 10
197.21439170400569
 20
391.30029324848238
 30
0.0
 11
197.21439170400569
 21
325.33702678926602
 31
0.0
  0
LINE
  5
130
  8
02TNR-01
 10
197.21439170400569
 20
333.33702678926602
 30
0.0
 11
197.21439170400569
 21
338.33702678926602
 31
0.0
  0
ARC
  5
131
  8
02TNR-01
 10
436.88793362735208
 20
436.88796432426813
 30
0.0
 40
436.88797281457352
 50
186.0171556074302
 51
194.86278152195041
  0
ARC
  5
132
  8
02TNR-01
 10
4.3959531876507736
 20
391.30029324848238
 30
0.0
 40
2.0
 50
90.0
 51
186.0171556074302
  0
ARC
  5
133
  8
02TNR-01
 10
16.550049022798252
 20
325.33702678926602
 30
0.0
 40
2.0
 50
194.8627815218934
 51
270.0
  0
ARC
  5
134
  8
02TNR-01
 10
436.88793362735208
 20
436.88796432426813
 30
0.0
 40
433.88797281457352
 50
185.76556507526331
 51
195.17129396935999
  0
LINE
  5
135
  8
02TNR-01
 10
101.4143917040055
 20
367.58702678926699
 30
0.0
 11
112.4143917040055
 21
367.58702678926699
 31
0.0
  0
LINE
  5
136
  8
02TNR-01
 10
101.4143917040055
 20
368.08702678926687
 30
0.0
 11
112.4143917040055
 21
368.08702678926687
 31
0.0
  0
ARC
  5
137
  8
02TNR-01
 10
101.4143917040055
 20
370.58702678926687
 30
0.0
 40
3.0
 50
180.0
 51
270.0
  0
ARC
  5
138
  8
02TNR-01
 10
101.4143917040055
 20
370.58702678926687
 30
0.0
 40
2.5
 50
180.0
 51
270.0
  0
LINE
  5
139
  8
02TNR-01
 10
115.4143917040055
 20
370.58702678926687
 30
0.0
 11
115.4143917040055
 21
381.58702678926687
 31
0.0
  0
LINE
  5
13A
  8
02TNR-01
 10
114.9143917040055
 20
370.58702678926687
 30
0.0
 11
114.9143917040055
 21
381.58702678926687
 31
0.0
  0
ARC
  5
13B
  8
02TNR-01
 10
112.4143917040055
 20
370.58702678926687
 30
0.0
 40
3.0
 50
270.0
 51
0.0
  0
ARC
  5
13C
  8
02TNR-01
 10
112.4143917040055
 20
370.58702678926687
 30
0.0
 40
2.5
 50
270.0
 51
0.0
  0
LINE
  5
13D
  8
02TNR-01
 10
112.4143917040055
 20
384.58702678926687
 30
0.0
 11
101.4143917040055
 21
384.58702678926687
 31
0.0
  0
LINE
  5
13E
  8
02TNR-01
 10
112.4143917040055
 20
384.08702678926687
 30
0.0
 11
101.4143917040055
 21
384.08702678926687
 31
0.0
  0
ARC
  5
13F
  8
02TNR-01
 10
112.4143917040055
 20
381.58702678926687
 30
0.0
 40
3.0
 50
0.0
 51
90.0
  0
ARC
  5
140
  8
02TNR-01
 10
112.4143917040055
 20
381.58702678926687
 30
0.0
 40
2.5
 50
0.0
 51
90.0
  0
LINE
  5
141
  8
02TNR-01
 10
98.414391704005567
 20
381.58702678926687
 30
0.0
 11
98.414391704005567
 21
370.58702678926687
 31
0.0
  0
LINE
  5
142
  8
02TNR-01
 10
98.914391704005567
 20
381.58702678926687
 30
0.0
 11
98.914391704005567
 21
370.58702678926687
 31
0.0
  0
ARC
  5
143
  8
02TNR-01
 10
101.4143917040055
 20
381.58702678926687
 30
0.0
 40
3.0
 50
90.0
 51
180.0
  0
ARC
  5
144
  8
02TNR-01
 10
101.4143917040055
 20
381.58702678926687
 30
0.0
 40
2.5
 50
90.0
 51
180.0
  0
LINE
  5
145
  8
02TNR-01
 10
127.9143917040055
 20
367.58702678926699
 30
0.0
 11
138.91439170400551
 21
367.58702678926699
 31
0.0
  0
LINE
  5
146
  8
02TNR-01
 10
127.9143917040055
 20
368.08702678926687
 30
0.0
 11
138.91439170400551
 21
368.08702678926687
 31
0.0
  0
ARC
  5
147
  8
02TNR-01
 10
127.9143917040055
 20
370.58702678926687
 30
0.0
 40
3.0
 50
180.0
 51
270.0
  0
ARC
  5
148
  8
02TNR-01
 10
127.9143917040055
 20
370.58702678926687
 30
0.0
 40
2.5
 50
180.0
 51
270.0
  0
LINE
  5
149
  8
02TNR-01
 10
141.91439170400551
 20
370.58702678926687
 30
0.0
 11
141.91439170400551
 21
381.58702678926687
 31
0.0
  0
LINE
  5
14A
  8
02TNR-01
 10
141.41439170400551
 20
370.58702678926687
 30
0.0
 11
141.41439170400551
 21
381.58702678926687
 31
0.0
  0
ARC
  5
14B
  8
02TNR-01
 10
138.91439170400551
 20
370.58702678926687
 30
0.0
 40
3.0
 50
270.0
 51
0.0
  0
ARC
  5
14C
  8
02TNR-01
 10
138.91439170400551
 20
370.58702678926687
 30
0.0
 40
2.5
 50
270.0
 51
0.0
  0
LINE
  5
14D
  8
02TNR-01
 10
138.91439170400551
 20
384.58702678926687
 30
0.0
 11
127.9143917040055
 21
384.58702678926687
 31
0.0
  0
LINE
  5
14E
  8
02TNR-01
 10
138.91439170400551
 20
384.08702678926687
 30
0.0
 11
127.9143917040055
 21
384.08702678926687
 31
0.0
  0
ARC
  5
14F
  8
02TNR-01
 10
138.91439170400551
 20
381.58702678926687
 30
0.0
 40
3.0
 50
0.0
 51
90.0
  0
ARC
  5
150
  8
02TNR-01
 10
138.91439170400551
 20
381.58702678926687
 30
0.0
 40
2.5
 50
0.0
 51
90.0
  0
LINE
  5
151
  8
02TNR-01
 10
124.9143917040055
 20
381.58702678926687
 30
0.0
 11
124.9143917040055
 21
370.58702678926687
 31
0.0
  0
LINE
  5
152
  8
02TNR-01
 10
125.4143917040055
 20
381.58702678926687
 30
0.0
 11
125.4143917040055
 21
370.58702678926687
 31
0.0
  0
ARC
  5
153
  8
02TNR-01
 10
127.9143917040055
 20
381.58702678926687
 30
0.0
 40
3.0
 50
90.0
 51
180.0
  0
ARC
  5
154
  8
02TNR-01
 10
127.9143917040055
 20
381.58702678926687
 30
0.0
 40
2.5
 50
90.0
 51
180.0
  0
LINE
  5
155
  8
02TNR-01
 10
154.41439170400551
 20
367.58702678926699
 30
0.0
 11
165.41439170400551
 21
367.58702678926699
 31
0.0
  0
LINE
  5
156
  8
02TNR-01
 10
154.41439170400551
 20
368.08702678926687
 30
0.0
 11
165.41439170400551
 21
368.08702678926687
 31
0.0
  0
ARC
  5
157
  8
02TNR-01
 10
154.41439170400551
 20
370.58702678926687
 30
0.0
 40
3.0
 50
180.0
 51
270.0
  0
ARC
  5
158
  8
02TNR-01
 10
154.41439170400551
 20
370.58702678926687
 30
0.0
 40
2.5
 50
180.0
 51
270.0
  0
LINE
  5
159
  8
02TNR-01
 10
168.41439170400551
 20
370.58702678926687
 30
0.0
 11
168.41439170400551
 21
381.58702678926687
 31
0.0
  0
LINE
  5
15A
  8
02TNR-01
 10
167.91439170400551
 20
370.58702678926687
 30
0.0
 11
167.91439170400551
 21
381.58702678926687
 31
0.0
  0
ARC
  5
15B
  8
02TNR-01
 10
165.41439170400551
 20
370.58702678926687
 30
0.0
 40
3.0
 50
270.0
 51
0.0
  0
ARC
  5
15C
  8
02TNR-01
 10
165.41439170400551
 20
370.58702678926687
 30
0.0
 40
2.5
 50
270.0
 51
0.0
  0
LINE
  5
15D
  8
02TNR-01
 10
165.41439170400551
 20
384.58702678926687
 30
0.0
 11
154.41439170400551
 21
384.58702678926687
 31
0.0
  0
LINE
  5
15E
  8
02TNR-01
 10
165.41439170400551
 20
384.08702678926687
 30
0.0
 11
154.41439170400551
 21
384.08702678926687
 31
0.0
  0
ARC
  5
15F
  8
02TNR-01
 10
165.41439170400551
 20
381.58702678926687
 30
0.0
 40
3.0
 50
0.0
 51
90.0
  0
ARC
  5
160
  8
02TNR-01
 10
165.41439170400551
 20
381.58702678926687
 30
0.0
 40
2.5
 50
0.0
 51
90.0
  0
LINE
  5
161
  8
02TNR-01
 10
151.41439170400551
 20
381.58702678926687
 30
0.0
 11
151.41439170400551
 21
370.58702678926687
 31
0.0
  0
LINE
  5
162
  8
02TNR-01
 10
151.91439170400551
 20
381.58702678926687
 30
0.0
 11
151.91439170400551
 21
370.58702678926687
 31
0.0
  0
ARC
  5
163
  8
02TNR-01
 10
154.41439170400551
 20
381.58702678926687
 30
0.0
 40
3.0
 50
90.0
 51
180.0
  0
ARC
  5
164
  8
02TNR-01
 10
154.41439170400551
 20
381.58702678926687
 30
0.0
 40
2.5
 50
90.0
 51
180.0
  0
LINE
  5
165
  8
02TNR-01
 10
154.41439170400551
 20
341.08702678926687
 30
0.0
 11
165.41439170400551
 21
341.08702678926687
 31
0.0
  0
LINE
  5
166
  8
02TNR-01
 10
154.41439170400551
 20
341.58702678926687
 30
0.0
 11
165.41439170400551
 21
341.58702678926687
 31
0.0
  0
ARC
  5
167
  8
02TNR-01
 10
154.41439170400551
 20
344.08702678926687
 30
0.0
 40
3.0
 50
180.0
 51
270.0
  0
ARC
  5
168
  8
02TNR-01
 10
154.41439170400551
 20
344.08702678926687
 30
0.0
 40
2.5
 50
180.0
 51
270.0
  0
LINE
  5
169
  8
02TNR-01
 10
168.41439170400551
 20
344.08702678926687
 30
0.0
 11
168.41439170400551
 21
355.08702678926699
 31
0.0
  0
LINE
  5
16A
  8
02TNR-01
 10
167.91439170400551
 20
344.08702678926687
 30
0.0
 11
167.91439170400551
 21
355.08702678926699
 31
0.0
  0
ARC
  5
16B
  8
02TNR-01
 10
165.41439170400551
 20
344.08702678926687
 30
0.0
 40
3.0
 50
270.0
 51
0.0
  0
ARC
  5
16C
  8
02TNR-01
 10
165.41439170400551
 20
344.08702678926687
 30
0.0
 40
2.5
 50
270.0
 51
0.0
  0
LINE
  5
16D
  8
02TNR-01
 10
165.41439170400551
 20
358.08702678926687
 30
0.0
 11
154.41439170400551
 21
358.08702678926687
 31
0.0
  0
LINE
  5
16E
  8
02TNR-01
 10
165.41439170400551
 20
357.58702678926687
 30
0.0
 11
154.41439170400551
 21
357.58702678926687
 31
0.0
  0
ARC
  5
16F
  8
02TNR-01
 10
165.41439170400551
 20
355.08702678926699
 30
0.0
 40
3.0
 50
0.0
 51
90.0
  0
ARC
  5
170
  8
02TNR-01
 10
165.41439170400551
 20
355.08702678926699
 30
0.0
 40
2.5
 50
0.0
 51
90.0
  0
LINE
  5
171
  8
02TNR-01
 10
151.41439170400551
 20
355.08702678926699
 30
0.0
 11
151.41439170400551
 21
344.08702678926687
 31
0.0
  0
LINE
  5
172
  8
02TNR-01
 10
151.91439170400551
 20
355.08702678926699
 30
0.0
 11
151.91439170400551
 21
344.08702678926687
 31
0.0
  0
ARC
  5
173
  8
02TNR-01
 10
154.41439170400551
 20
355.08702678926699
 30
0.0
 40
3.0
 50
90.0
 51
180.0
  0
ARC
  5
174
  8
02TNR-01
 10
154.41439170400551
 20
355.08702678926699
 30
0.0
 40
2.5
 50
90.0
 51
180.0
  0
LINE
  5
175
  8
02TNR-01
 10
127.9143917040055
 20
341.08702678926687
 30
0.0
 11
138.91439170400551
 21
341.08702678926687
 31
0.0
  0
LINE
  5
176
  8
02TNR-01
 10
127.9143917040055
 20
341.58702678926687
 30
0.0
 11
138.91439170400551
 21
341.58702678926687
 31
0.0
  0
ARC
  5
177
  8
02TNR-01
 10
127.9143917040055
 20
344.08702678926687
 30
0.0
 40
3.0
 50
180.0
 51
270.0
  0
ARC
  5
178
  8
02TNR-01
 10
127.9143917040055
 20
344.08702678926687
 30
0.0
 40
2.5
 50
180.0
 51
270.0
  0
LINE
  5
179
  8
02TNR-01
 10
141.91439170400551
 20
344.08702678926687
 30
0.0
 11
141.91439170400551
 21
355.08702678926699
 31
0.0
  0
LINE
  5
17A
  8
02TNR-01
 10
141.41439170400551
 20
344.08702678926687
 30
0.0
 11
141.41439170400551
 21
355.08702678926699
 31
0.0
  0
ARC
  5
17B
  8
02TNR-01
 10
138.91439170400551
 20
344.08702678926687
 30
0.0
 40
3.0
 50
270.0
 51
0.0
  0
ARC
  5
17C
  8
02TNR-01
 10
138.91439170400551
 20
344.08702678926687
 30
0.0
 40
2.5
 50
270.0
 51
0.0
  0
LINE
  5
17D
  8
02TNR-01
 10
138.91439170400551
 20
358.08702678926687
 30
0.0
 11
127.9143917040055
 21
358.08702678926687
 31
0.0
  0
LINE
  5
17E
  8
02TNR-01
 10
138.91439170400551
 20
357.58702678926687
 30
0.0
 11
127.9143917040055
 21
357.58702678926687
 31
0.0
  0
ARC
  5
17F
  8
02TNR-01
 10
138.91439170400551
 20
355.08702678926699
 30
0.0
 40
3.0
 50
0.0
 51
90.0
  0
ARC
  5
180
  8
02TNR-01
 10
138.91439170400551
 20
355.08702678926699
 30
0.0
 40
2.5
 50
0.0
 51
90.0
  0
LINE
  5
181
  8
02TNR-01
 10
124.9143917040055
 20
355.08702678926699
 30
0.0
 11
124.9143917040055
 21
344.08702678926687
 31
0.0
  0
LINE
  5
182
  8
02TNR-01
 10
125.4143917040055
 20
355.08702678926699
 30
0.0
 11
125.4143917040055
 21
344.08702678926687
 31
0.0
  0
ARC
  5
183
  8
02TNR-01
 10
127.9143917040055
 20
355.08702678926699
 30
0.0
 40
3.0
 50
90.0
 51
180.0
  0
ARC
  5
184
  8
02TNR-01
 10
127.9143917040055
 20
355.08702678926699
 30
0.0
 40
2.5
 50
90.0
 51
180.0
  0
LINE
  5
185
  8
02TNR-01
 10
101.4143917040055
 20
341.08702678926687
 30
0.0
 11
112.4143917040055
 21
341.08702678926687
 31
0.0
  0
LINE
  5
186
  8
02TNR-01
 10
101.4143917040055
 20
341.58702678926687
 30
0.0
 11
112.4143917040055
 21
341.58702678926687
 31
0.0
  0
ARC
  5
187
  8
02TNR-01
 10
101.4143917040055
 20
344.08702678926687
 30
0.0
 40
3.0
 50
180.0
 51
270.0
  0
ARC
  5
188
  8
02TNR-01
 10
101.4143917040055
 20
344.08702678926687
 30
0.0
 40
2.5
 50
180.0
 51
270.0
  0
LINE
  5
189
  8
02TNR-01
 10
115.4143917040055
 20
344.08702678926687
 30
0.0
 11
115.4143917040055
 21
355.08702678926699
 31
0.0
  0
LINE
  5
18A
  8
02TNR-01
 10
114.9143917040055
 20
344.08702678926687
 30
0.0
 11
114.9143917040055
 21
355.08702678926699
 31
0.0
  0
ARC
  5
18B
  8
02TNR-01
 10
112.4143917040055
 20
344.08702678926687
 30
0.0
 40
3.0
 50
270.0
 51
0.0
  0
ARC
  5
18C
  8
02TNR-01
 10
112.4143917040055
 20
344.08702678926687
 30
0.0
 40
2.5
 50
270.0
 51
0.0
  0
LINE
  5
18D
  8
02TNR-01
 10
112.4143917040055
 20
358.08702678926687
 30
0.0
 11
101.4143917040055
 21
358.08702678926687
 31
0.0
  0
LINE
  5
18E
  8
02TNR-01
 10
112.4143917040055
 20
357.58702678926687
 30
0.0
 11
101.4143917040055
 21
357.58702678926687
 31
0.0
  0
ARC
  5
18F
  8
02TNR-01
 10
112.4143917040055
 20
355.08702678926699
 30
0.0
 40
3.0
 50
0.0
 51
90.0
  0
ARC
  5
190
  8
02TNR-01
 10
112.4143917040055
 20
355.08702678926699
 30
0.0
 40
2.5
 50
0.0
 51
90.0
  0
LINE
  5
191
  8
02TNR-01
 10
98.414391704005567
 20
355.08702678926699
 30
0.0
 11
98.414391704005567
 21
344.08702678926687
 31
0.0
  0
LINE
  5
192
  8
02TNR-01
 10
98.914391704005567
 20
355.08702678926699
 30
0.0
 11
98.914391704005567
 21
344.08702678926687
 31
0.0
  0
ARC
  5
193
  8
02TNR-01
 10
101.4143917040055
 20
355.08702678926699
 30
0.0
 40
3.0
 50
90.0
 51
180.0
  0
ARC
  5
194
  8
02TNR-01
 10
101.4143917040055
 20
355.08702678926699
 30
0.0
 40
2.5
 50
90.0
 51
180.0
  0
POLYLINE
  5
195
  8
02TNR-01
 66
     1
 10
0.0
 20
0.0
 30
0.0
 70
     1
  0
VERTEX
  5
A35
  8
02TNR-01
 10
37.367872334534688
 20
341.48673575598241
 30
0.0
 42
-0.4142251944132629
  0
VERTEX
  5
A36
  8
02TNR-01
 10
35.367819047446567
 20
343.4867618962254
 30
0.0
  0
VERTEX
  5
A37
  8
02TNR-01
 10
35.368324874883001
 20
382.18676189551297
 30
0.0
 42
-0.4142097341243736
  0
VERTEX
  5
A38
  8
02TNR-01
 10
37.36832487471203
 20
384.1867357545616
 30
0.0
  0
VERTEX
  5
A39
  8
02TNR-01
 10
81.060664145491501
 20
384.1867357545616
 30
0.0
 42
-0.414213562373099
  0
VERTEX
  5
A3A
  8
02TNR-01
 10
83.060664145491501
 20
382.1867357545616
 30
0.0
  0
VERTEX
  5
A3B
  8
02TNR-01
 10
83.060664145491501
 20
343.48789989125191
 30
0.0
 42
-0.4142057586561946
  0
VERTEX
  5
A3C
  8
02TNR-01
 10
81.060717432750607
 20
341.48789989196212
 30
0.0
  0
SEQEND
  5
A3D
  8
02TNR-01
  0
CIRCLE
  5
196
  8
02TNR-01
 10
106.91066414549179
 20
349.58702678926602
 30
0.0
 40
6.0
  0
CIRCLE
  5
197
  8
02TNR-01
 10
106.91066414549179
 20
376.08702678926602
 30
0.0
 40
6.0
  0
CIRCLE
  5
198
  8
02TNR-01
 10
133.41066414549181
 20
349.58702678926602
 30
0.0
 40
6.0
  0
CIRCLE
  5
199
  8
02TNR-01
 10
133.41066414549181
 20
376.08702678926602
 30
0.0
 40
6.0
  0
CIRCLE
  5
19A
  8
02TNR-01
 10
159.91066414549181
 20
349.58702678926602
 30
0.0
 40
6.0
  0
CIRCLE
  5
19B
  8
02TNR-01
 10
159.91066414549181
 20
376.08702678926602
 30
0.0
 40
6.0
  0
ENDBLK
  5
19F
  8
0
  0
BLOCK
  8
0
  2
*D1
 70
     1
 10
0.0
 20
0.0
 30
0.0
  3
*D1
  1

  0
LINE
  5
1B7
  8
0
  6
CONTINUOUS
 62
     0
 10
1094.367536153768
 20
562.63836274143785
 30
0.0
 11
1094.367536153768
 21
617.40213657372124
 31
0.0
  0
LINE
  5
1B8
  8
0
  6
CONTINUOUS
 62
     0
 10
1235.0
 20
575.0625
 30
0.0
 11
1235.0
 21
617.40213657372124
 31
0.0
  0
LINE
  5
1B9
  8
0
  6
CONTINUOUS
 62
     0
 10
1094.5475361537681
 20
617.2221365737214
 30
0.0
 11
1164.0087680768841
 21
617.2221365737214
 31
0.0
  0
LINE
  5
1BA
  8
0
  6
CONTINUOUS
 62
     0
 10
1234.8199999999999
 20
617.2221365737214
 30
0.0
 11
1165.358768076884
 21
617.2221365737214
 31
0.0
  0
SOLID
  5
1BB
  8
0
  6
CONTINUOUS
 62
     0
 10
1094.5475361537681
 20
617.25213657372115
 30
0.0
 11
1094.5475361537681
 21
617.19213657372143
 31
0.0
 12
1094.367536153768
 22
617.2221365737214
 32
0.0
 13
1094.367536153768
 23
617.2221365737214
 33
0.0
  0
SOLID
  5
1BC
  8
0
  6
CONTINUOUS
 62
     0
 10
1234.8199999999999
 20
617.25213657372115
 30
0.0
 11
1234.8199999999999
 21
617.19213657372143
 31
0.0
 12
1235.0
 22
617.2221365737214
 32
0.0
 13
1235.0
 23
617.2221365737214
 33
0.0
  0
INSERT
  5
1BD
  8
0
  6
CONTINUOUS
  2
*U16
 10
0.0
 20
0.0
 30
0.0
  0
POINT
  5
1BE
  8
DEFPOINTS
  6
CONTINUOUS
 62
     0
 10
1094.367536153768
 20
562.57586274143785
 30
0.0
  0
POINT
  5
1BF
  8
DEFPOINTS
  6
CONTINUOUS
 62
     0
 10
1235.0
 20
575.0
 30
0.0
  0
POINT
  5
1C0
  8
DEFPOINTS
  6
CONTINUOUS
 62
     0
 10
1235.0
 20
617.2221365737214
 30
0.0
  0
ENDBLK
  5
1B6
  8
0
  0
BLOCK
  8
0
  2
*D2
 70
     1
 10
0.0
 20
0.0
 30
0.0
  3
*D2
  1

  0
LINE
  5
1C5
  8
0
  6
CONTINUOUS
 62
     0
 10
763.0
 20
575.0625
 30
0.0
 11
763.0
 21
628.47254297518123
 31
0.0
  0
LINE
  5
1C6
  8
0
  6
CONTINUOUS
 62
     0
 10
899.56011653205167
 20
562.42871026108901
 30
0.0
 11
899.56011653205167
 21
628.47254297518123
 31
0.0
  0
LINE
  5
1C7
  8
0
  6
CONTINUOUS
 62
     0
 10
763.17999999999972
 20
628.29254297518128
 30
0.0
 11
830.63505826602557
 21
628.29254297518128
 31
0.0
  0
LINE
  5
1C8
  8
0
  6
CONTINUOUS
 62
     0
 10
899.38011653205172
 20
628.29254297518128
 30
0.0
 11
831.92505826602564
 21
628.29254297518128
 31
0.0
  0
SOLID
  5
1C9
  8
0
  6
CONTINUOUS
 62
     0
 10
763.17999999999972
 20
628.32254297518125
 30
0.0
 11
763.17999999999972
 21
628.2625429751813
 31
0.0
 12
763.0
 22
628.29254297518128
 32
0.0
 13
763.0
 23
628.29254297518128
 33
0.0
  0
SOLID
  5
1CA
  8
0
  6
CONTINUOUS
 62
     0
 10
899.38011653205172
 20
628.32254297518125
 30
0.0
 11
899.38011653205172
 21
628.2625429751813
 31
0.0
 12
899.56011653205167
 22
628.29254297518128
 32
0.0
 13
899.56011653205167
 23
628.29254297518128
 33
0.0
  0
INSERT
  5
1CB
  8
0
  6
CONTINUOUS
  2
*U17
 10
0.0
 20
0.0
 30
0.0
  0
POINT
  5
1CC
  8
DEFPOINTS
  6
CONTINUOUS
 62
     0
 10
763.0
 20
575.0
 30
0.0
  0
POINT
  5
1CD
  8
DEFPOINTS
  6
CONTINUOUS
 62
     0
 10
899.56011653205167
 20
562.3662102610889
 30
0.0
  0
POINT
  5
1CE
  8
DEFPOINTS
  6
CONTINUOUS
 62
     0
 10
899.56011653205167
 20
628.29254297518128
 30
0.0
  0
ENDBLK
  5
1C4
  8
0
  0
BLOCK
  8
0
  2
*D3
 70
     1
 10
0.0
 20
0.0
 30
0.0
  3
*D3
  1

  0
LINE
  5
2FF
  8
0
  6
CONTINUOUS
 62
     0
 10
-152.0625
 20
150.0
 30
0.0
 11
-249.62283274724521
 21
150.0
 31
0.0
  0
LINE
  5
300
  8
0
  6
CONTINUOUS
 62
     0
 10
-152.0625
 20
580.0
 30
0.0
 11
-249.6228327472451
 21
580.0
 31
0.0
  0
LINE
  5
301
  8
0
  6
CONTINUOUS
 62
     0
 10
-249.44283274724521
 20
150.18000000000001
 30
0.0
 11
-249.44283274724509
 21
364.81999999999999
 31
0.0
  0
LINE
  5
302
  8
0
  6
CONTINUOUS
 62
     0
 10
-249.44283274724509
 20
579.82000000000005
 30
0.0
 11
-249.44283274724509
 21
365.18000000000018
 31
0.0
  0
SOLID
  5
303
  8
0
  6
CONTINUOUS
 62
     0
 10
-249.47283274724521
 20
150.18000000000001
 30
0.0
 11
-249.4128327472452
 21
150.18000000000001
 31
0.0
 12
-249.44283274724521
 22
150.0
 32
0.0
 13
-249.44283274724521
 23
150.0
 33
0.0
  0
SOLID
  5
304
  8
0
  6
CONTINUOUS
 62
     0
 10
-249.47283274724509
 20
579.82000000000005
 30
0.0
 11
-249.41283274724509
 21
579.82000000000005
 31
0.0
 12
-249.44283274724509
 22
580.0
 32
0.0
 13
-249.44283274724509
 23
580.0
 33
0.0
  0
INSERT
  5
305
  8
0
  6
CONTINUOUS
  2
*U18
 10
0.0
 20
0.0
 30
0.0
  0
POINT
  5
306
  8
DEFPOINTS
  6
CONTINUOUS
 62
     0
 10
-152.0
 20
150.0
 30
0.0
  0
POINT
  5
307
  8
DEFPOINTS
  6
CONTINUOUS
 62
     0
 10
-152.0
 20
580.0
 30
0.0
  0
POINT
  5
308
  8
DEFPOINTS
  6
CONTINUOUS
 62
     0
 10
-249.44283274724509
 20
580.0
 30
0.0
  0
ENDBLK
  5
2F4
  8
0
  0
BLOCK
  8
0
  2
*D4
 70
     1
 10
0.0
 20
0.0
 30
0.0
  3
*D4
  1

  0
LINE
  5
34D
  8
0
  6
CONTINUOUS
 62
     0
 10
-152.0
 20
580.0625
 30
0.0
 11
-152.0
 21
652.17862438935992
 31
0.0
  0
LINE
  5
34E
  8
0
  6
CONTINUOUS
 62
     0
 10
1248.0
 20
580.0625
 30
0.0
 11
1248.0
 21
652.17862438935992
 31
0.0
  0
LINE
  5
34F
  8
0
  6
CONTINUOUS
 62
     0
 10
-151.81999999999999
 20
651.99862438935975
 30
0.0
 11
547.30999999999983
 21
651.99862438935975
 31
0.0
  0
LINE
  5
350
  8
0
  6
CONTINUOUS
 62
     0
 10
1247.8199999999999
 20
651.99862438935975
 30
0.0
 11
548.69000000000005
 21
651.99862438935975
 31
0.0
  0
SOLID
  5
351
  8
0
  6
CONTINUOUS
 62
     0
 10
-151.81999999999999
 20
652.02862438935995
 30
0.0
 11
-151.81999999999999
 21
651.96862438936
 31
0.0
 12
-152.0
 22
651.99862438935975
 32
0.0
 13
-152.0
 23
651.99862438935975
 33
0.0
  0
SOLID
  5
352
  8
0
  6
CONTINUOUS
 62
     0
 10
1247.8199999999999
 20
652.02862438935995
 30
0.0
 11
1247.8199999999999
 21
651.96862438936
 31
0.0
 12
1248.0
 22
651.99862438935975
 32
0.0
 13
1248.0
 23
651.99862438935975
 33
0.0
  0
INSERT
  5
353
  8
0
  6
CONTINUOUS
  2
*U19
 10
0.0
 20
0.0
 30
0.0
  0
POINT
  5
354
  8
DEFPOINTS
  6
CONTINUOUS
 62
     0
 10
-152.0
 20
580.0
 30
0.0
  0
POINT
  5
355
  8
DEFPOINTS
  6
CONTINUOUS
 62
     0
 10
1248.0
 20
580.0
 30
0.0
  0
POINT
  5
356
  8
DEFPOINTS
  6
CONTINUOUS
 62
     0
 10
1248.0
 20
651.99862438935975
 30
0.0
  0
ENDBLK
  5
34C
  8
0
  0
BLOCK
  8
0
  2
*D5
 70
     1
 10
0.0
 20
0.0
 30
0.0
  3
*D5
  1

  0
LINE
  5
35B
  8
0
  6
CONTINUOUS
 62
     0
 10
763.0
 20
160.13749999999999
 30
0.0
 11
763.0
 21
70.838931201888315
 31
0.0
  0
LINE
  5
35C
  8
0
  6
CONTINUOUS
 62
     0
 10
1248.0
 20
149.9375
 30
0.0
 11
1248.0
 21
70.838931201888315
 31
0.0
  0
LINE
  5
35D
  8
0
  6
CONTINUOUS
 62
     0
 10
763.17999999999972
 20
71.018931201888336
 30
0.0
 11
1004.84
 21
71.018931201888336
 31
0.0
  0
LINE
  5
35E
  8
0
  6
CONTINUOUS
 62
     0
 10
1247.8199999999999
 20
71.018931201888336
 30
0.0
 11
1006.16
 21
71.018931201888336
 31
0.0
  0
SOLID
  5
35F
  8
0
  6
CONTINUOUS
 62
     0
 10
763.17999999999972
 20
71.048931201888337
 30
0.0
 11
763.17999999999972
 21
70.988931201888334
 31
0.0
 12
763.0
 22
71.018931201888336
 32
0.0
 13
763.0
 23
71.018931201888336
 33
0.0
  0
SOLID
  5
360
  8
0
  6
CONTINUOUS
 62
     0
 10
1247.8199999999999
 20
71.048931201888337
 30
0.0
 11
1247.8199999999999
 21
70.988931201888334
 31
0.0
 12
1248.0
 22
71.018931201888336
 32
0.0
 13
1248.0
 23
71.018931201888336
 33
0.0
  0
INSERT
  5
361
  8
0
  6
CONTINUOUS
  2
*U20
 10
0.0
 20
0.0
 30
0.0
  0
POINT
  5
362
  8
DEFPOINTS
  6
CONTINUOUS
 62
     0
 10
763.0
 20
160.19999999999999
 30
0.0
  0
POINT
  5
363
  8
DEFPOINTS
  6
CONTINUOUS
 62
     0
 10
1248.0
 20
150.0
 30
0.0
  0
POINT
  5
364
  8
DEFPOINTS
  6
CONTINUOUS
 62
     0
 10
1248.0
 20
71.018931201888336
 30
0.0
  0
ENDBLK
  5
35A
  8
0
  0
BLOCK
  8
0
  2
*D6
 70
     1
 10
0.0
 20
0.0
 30
0.0
  3
*D6
  1

  0
LINE
  5
372
  8
0
  6
CONTINUOUS
 62
     0
 10
-152.0
 20
580.0625
 30
0.0
 11
-152.0
 21
654.62865049662059
 31
0.0
  0
LINE
  5
373
  8
0
  6
CONTINUOUS
 62
     0
 10
1098.0
 20
580.0625
 30
0.0
 11
1098.0
 21
654.62865049662059
 31
0.0
  0
LINE
  5
374
  8
0
  6
CONTINUOUS
 62
     0
 10
-151.81999999999999
 20
654.44865049662064
 30
0.0
 11
472.29499999999979
 21
654.44865049662064
 31
0.0
  0
LINE
  5
375
  8
0
  6
CONTINUOUS
 62
     0
 10
1097.8199999999999
 20
654.44865049662064
 30
0.0
 11
473.70499999999993
 21
654.44865049662064
 31
0.0
  0
SOLID
  5
376
  8
0
  6
CONTINUOUS
 62
     0
 10
-151.81999999999999
 20
654.47865049662073
 30
0.0
 11
-151.81999999999999
 21
654.41865049662056
 31
0.0
 12
-152.0
 22
654.44865049662064
 32
0.0
 13
-152.0
 23
654.44865049662064
 33
0.0
  0
SOLID
  5
377
  8
0
  6
CONTINUOUS
 62
     0
 10
1097.8199999999999
 20
654.47865049662073
 30
0.0
 11
1097.8199999999999
 21
654.41865049662056
 31
0.0
 12
1098.0
 22
654.44865049662064
 32
0.0
 13
1098.0
 23
654.44865049662064
 33
0.0
  0
INSERT
  5
378
  8
0
  6
CONTINUOUS
  2
*U21
 10
0.0
 20
0.0
 30
0.0
  0
POINT
  5
379
  8
DEFPOINTS
  6
CONTINUOUS
 62
     0
 10
-152.0
 20
580.0
 30
0.0
  0
POINT
  5
37A
  8
DEFPOINTS
  6
CONTINUOUS
 62
     0
 10
1098.0
 20
580.0
 30
0.0
  0
POINT
  5
37B
  8
DEFPOINTS
  6
CONTINUOUS
 62
     0
 10
1098.0
 20
654.44865049662064
 30
0.0
  0
ENDBLK
  5
371
  8
0
  0
BLOCK
  8
0
  2
*D7
 70
     1
 10
0.0
 20
0.0
 30
0.0
  3
*D7
  1

  0
LINE
  5
397
  8
0
  6
CONTINUOUS
 62
     0
 10
-149.0
 20
580.0625
 30
0.0
 11
-149.0
 21
622.64334868233868
 31
0.0
  0
LINE
  5
398
  8
0
  6
CONTINUOUS
 62
     0
 10
1101.0
 20
580.0625
 30
0.0
 11
1101.0
 21
622.64334868233868
 31
0.0
  0
LINE
  5
399
  8
0
  6
CONTINUOUS
 62
     0
 10
-148.81999999999999
 20
622.46334868233851
 30
0.0
 11
475.29500000000002
 21
622.46334868233851
 31
0.0
  0
LINE
  5
39A
  8
0
  6
CONTINUOUS
 62
     0
 10
1100.8199999999999
 20
622.46334868233851
 30
0.0
 11
476.70499999999998
 21
622.46334868233851
 31
0.0
  0
SOLID
  5
39B
  8
0
  6
CONTINUOUS
 62
     0
 10
-148.81999999999999
 20
622.49334868233859
 30
0.0
 11
-148.81999999999999
 21
622.43334868233865
 31
0.0
 12
-149.0
 22
622.46334868233851
 32
0.0
 13
-149.0
 23
622.46334868233851
 33
0.0
  0
SOLID
  5
39C
  8
0
  6
CONTINUOUS
 62
     0
 10
1100.8199999999999
 20
622.49334868233859
 30
0.0
 11
1100.8199999999999
 21
622.43334868233865
 31
0.0
 12
1101.0
 22
622.46334868233851
 32
0.0
 13
1101.0
 23
622.46334868233851
 33
0.0
  0
INSERT
  5
39D
  8
0
  6
CONTINUOUS
  2
*U22
 10
0.0
 20
0.0
 30
0.0
  0
POINT
  5
39E
  8
DEFPOINTS
  6
CONTINUOUS
 62
     0
 10
-149.0
 20
580.0
 30
0.0
  0
POINT
  5
39F
  8
DEFPOINTS
  6
CONTINUOUS
 62
     0
 10
1101.0
 20
580.0
 30
0.0
  0
POINT
  5
3A0
  8
DEFPOINTS
  6
CONTINUOUS
 62
     0
 10
1101.0
 20
622.46334868233851
 30
0.0
  0
ENDBLK
  5
38C
  8
0
  0
BLOCK
  8
0
  2
*D8
 70
     1
 10
0.0
 20
0.0
 30
0.0
  3
*D8
  1

  0
LINE
  5
3A5
  8
0
  6
CONTINUOUS
 62
     0
 10
-146.0625
 20
150.0
 30
0.0
 11
-249.37166810746911
 21
150.0
 31
0.0
  0
LINE
  5
3A6
  8
0
  6
CONTINUOUS
 62
     0
 10
-149.0625
 20
580.0
 30
0.0
 11
-249.37166810746899
 21
580.0
 31
0.0
  0
LINE
  5
3A7
  8
0
  6
CONTINUOUS
 62
     0
 10
-249.1916681074691
 20
150.18000000000001
 30
0.0
 11
-249.1916681074691
 21
364.81999999999999
 31
0.0
  0
LINE
  5
3A8
  8
0
  6
CONTINUOUS
 62
     0
 10
-249.19166810746901
 20
579.82000000000005
 30
0.0
 11
-249.1916681074691
 21
365.18000000000018
 31
0.0
  0
SOLID
  5
3A9
  8
0
  6
CONTINUOUS
 62
     0
 10
-249.2216681074691
 20
150.18000000000001
 30
0.0
 11
-249.1616681074691
 21
150.18000000000001
 31
0.0
 12
-249.1916681074691
 22
150.0
 32
0.0
 13
-249.1916681074691
 23
150.0
 33
0.0
  0
SOLID
  5
3AA
  8
0
  6
CONTINUOUS
 62
     0
 10
-249.22166810746899
 20
579.82000000000005
 30
0.0
 11
-249.16166810746901
 21
579.82000000000005
 31
0.0
 12
-249.19166810746901
 22
580.0
 32
0.0
 13
-249.19166810746901
 23
580.0
 33
0.0
  0
INSERT
  5
3AB
  8
0
  6
CONTINUOUS
  2
*U23
 10
0.0
 20
0.0
 30
0.0
  0
POINT
  5
3AC
  8
DEFPOINTS
  6
CONTINUOUS
 62
     0
 10
-146.0
 20
150.0
 30
0.0
  0
POINT
  5
3AD
  8
DEFPOINTS
  6
CONTINUOUS
 62
     0
 10
-149.0
 20
580.0
 30
0.0
  0
POINT
  5
3AE
  8
DEFPOINTS
  6
CONTINUOUS
 62
     0
 10
-249.19166810746901
 20
580.0
 30
0.0
  0
ENDBLK
  5
3A4
  8
0
  0
BLOCK
  8
0
  2
*D9
 70
     1
 10
0.0
 20
0.0
 30
0.0
  3
*D9
  1

  0
LINE
  5
400
  8
0
  6
CONTINUOUS
 62
     0
 10
-148.0
 20
149.9375
 30
0.0
 11
-148.0
 21
-102.1020635241677
 31
0.0
  0
LINE
  5
401
  8
0
  6
CONTINUOUS
 62
     0
 10
1098.0
 20
149.9375
 30
0.0
 11
1098.0
 21
-102.1020635241677
 31
0.0
  0
LINE
  5
402
  8
0
  6
CONTINUOUS
 62
     0
 10
-147.81999999999999
 20
-101.9220635241677
 30
0.0
 11
474.27999999999992
 21
-101.9220635241677
 31
0.0
  0
LINE
  5
403
  8
0
  6
CONTINUOUS
 62
     0
 10
1097.8199999999999
 20
-101.9220635241677
 30
0.0
 11
475.72000000000003
 21
-101.9220635241677
 31
0.0
  0
SOLID
  5
404
  8
0
  6
CONTINUOUS
 62
     0
 10
-147.81999999999999
 20
-101.8920635241677
 30
0.0
 11
-147.81999999999999
 21
-101.9520635241677
 31
0.0
 12
-148.0
 22
-101.9220635241677
 32
0.0
 13
-148.0
 23
-101.9220635241677
 33
0.0
  0
SOLID
  5
405
  8
0
  6
CONTINUOUS
 62
     0
 10
1097.8199999999999
 20
-101.8920635241677
 30
0.0
 11
1097.8199999999999
 21
-101.9520635241677
 31
0.0
 12
1098.0
 22
-101.9220635241677
 32
0.0
 13
1098.0
 23
-101.9220635241677
 33
0.0
  0
INSERT
  5
406
  8
0
  6
CONTINUOUS
  2
*U24
 10
0.0
 20
0.0
 30
0.0
  0
POINT
  5
407
  8
DEFPOINTS
  6
CONTINUOUS
 62
     0
 10
-148.0
 20
150.0
 30
0.0
  0
POINT
  5
408
  8
DEFPOINTS
  6
CONTINUOUS
 62
     0
 10
1098.0
 20
150.0
 30
0.0
  0
POINT
  5
409
  8
DEFPOINTS
  6
CONTINUOUS
 62
     0
 10
1098.0
 20
-101.9220635241677
 30
0.0
  0
ENDBLK
  5
3F5
  8
0
  0
BLOCK
  8
0
  2
*D10
 70
     1
 10
0.0
 20
0.0
 30
0.0
  3
*D10
  1

  0
LINE
  5
40E
  8
0
  6
CONTINUOUS
 62
     0
 10
741.0
 20
160.16249999999999
 30
0.0
 11
741.0
 21
232.085531426236
 31
0.0
  0
LINE
  5
40F
  8
0
  6
CONTINUOUS
 62
     0
 10
-148.0
 20
150.0625
 30
0.0
 11
-148.0
 21
232.085531426236
 31
0.0
  0
LINE
  5
410
  8
0
  6
CONTINUOUS
 62
     0
 10
740.82000000000005
 20
231.90553142623591
 30
0.0
 11
297.16000000000003
 21
231.90553142623591
 31
0.0
  0
LINE
  5
411
  8
0
  6
CONTINUOUS
 62
     0
 10
-147.81999999999999
 20
231.90553142623591
 30
0.0
 11
295.83999999999997
 21
231.90553142623591
 31
0.0
  0
SOLID
  5
412
  8
0
  6
CONTINUOUS
 62
     0
 10
740.82000000000005
 20
231.93553142623591
 30
0.0
 11
740.82000000000005
 21
231.87553142623599
 31
0.0
 12
741.0
 22
231.90553142623591
 32
0.0
 13
741.0
 23
231.90553142623591
 33
0.0
  0
SOLID
  5
413
  8
0
  6
CONTINUOUS
 62
     0
 10
-147.81999999999999
 20
231.93553142623591
 30
0.0
 11
-147.81999999999999
 21
231.87553142623599
 31
0.0
 12
-148.0
 22
231.90553142623591
 32
0.0
 13
-148.0
 23
231.90553142623591
 33
0.0
  0
INSERT
  5
414
  8
0
  6
CONTINUOUS
  2
*U25
 10
0.0
 20
0.0
 30
0.0
  0
POINT
  5
415
  8
DEFPOINTS
  6
CONTINUOUS
 62
     0
 10
741.0
 20
160.09999999999999
 30
0.0
  0
POINT
  5
416
  8
DEFPOINTS
  6
CONTINUOUS
 62
     0
 10
-148.0
 20
150.0
 30
0.0
  0
POINT
  5
417
  8
DEFPOINTS
  6
CONTINUOUS
 62
     0
 10
-148.0
 20
231.90553142623591
 30
0.0
  0
ENDBLK
  5
40D
  8
0
  0
BLOCK
  8
0
  2
*D11
 70
     1
 10
0.0
 20
0.0
 30
0.0
  3
*D11
  1

  0
LINE
  5
41C
  8
0
  6
CONTINUOUS
 62
     0
 10
763.0
 20
160.13749999999999
 30
0.0
 11
763.0
 21
71.79317265863466
 31
0.0
  0
LINE
  5
41D
  8
0
  6
CONTINUOUS
 62
     0
 10
1085.0
 20
160.13749999999999
 30
0.0
 11
1085.0
 21
71.79317265863466
 31
0.0
  0
LINE
  5
41E
  8
0
  6
CONTINUOUS
 62
     0
 10
763.17999999999972
 20
71.973172658634667
 30
0.0
 11
923.34000000000015
 21
71.973172658634667
 31
0.0
  0
LINE
  5
41F
  8
0
  6
CONTINUOUS
 62
     0
 10
1084.8199999999999
 20
71.973172658634667
 30
0.0
 11
924.65999999999985
 21
71.973172658634667
 31
0.0
  0
SOLID
  5
420
  8
0
  6
CONTINUOUS
 62
     0
 10
763.17999999999972
 20
72.003172658634668
 30
0.0
 11
763.17999999999972
 21
71.943172658634666
 31
0.0
 12
763.0
 22
71.973172658634667
 32
0.0
 13
763.0
 23
71.973172658634667
 33
0.0
  0
SOLID
  5
421
  8
0
  6
CONTINUOUS
 62
     0
 10
1084.8199999999999
 20
72.003172658634668
 30
0.0
 11
1084.8199999999999
 21
71.943172658634666
 31
0.0
 12
1085.0
 22
71.973172658634667
 32
0.0
 13
1085.0
 23
71.973172658634667
 33
0.0
  0
INSERT
  5
422
  8
0
  6
CONTINUOUS
  2
*U26
 10
0.0
 20
0.0
 30
0.0
  0
POINT
  5
423
  8
DEFPOINTS
  6
CONTINUOUS
 62
     0
 10
763.0
 20
160.19999999999999
 30
0.0
  0
POINT
  5
424
  8
DEFPOINTS
  6
CONTINUOUS
 62
     0
 10
1085.0
 20
160.19999999999999
 30
0.0
  0
POINT
  5
425
  8
DEFPOINTS
  6
CONTINUOUS
 62
     0
 10
1085.0
 20
71.973172658634667
 30
0.0
  0
ENDBLK
  5
41B
  8
0
  0
BLOCK
  8
0
  2
*D12
 70
     1
 10
0.0
 20
0.0
 30
0.0
  3
*D12
  1

  0
LINE
  5
4D7
  8
0
  6
CONTINUOUS
 62
     0
 10
-150.0
 20
800.06249999999989
 30
0.0
 11
-150.0
 21
848.31943476551851
 31
0.0
  0
LINE
  5
4D8
  8
0
  6
CONTINUOUS
 62
     0
 10
640.0
 20
800.06249999999989
 30
0.0
 11
640.0
 21
848.31943476551851
 31
0.0
  0
LINE
  5
4D9
  8
0
  6
CONTINUOUS
 62
     0
 10
-149.81999999999999
 20
848.13943476551856
 30
0.0
 11
244.35499999999999
 21
848.13943476551856
 31
0.0
  0
LINE
  5
4DA
  8
0
  6
CONTINUOUS
 62
     0
 10
639.82000000000005
 20
848.13943476551856
 30
0.0
 11
245.64500000000001
 21
848.13943476551856
 31
0.0
  0
SOLID
  5
4DB
  8
0
  6
CONTINUOUS
 62
     0
 10
-149.81999999999999
 20
848.16943476551864
 30
0.0
 11
-149.81999999999999
 21
848.10943476551859
 31
0.0
 12
-150.0
 22
848.13943476551856
 32
0.0
 13
-150.0
 23
848.13943476551856
 33
0.0
  0
SOLID
  5
4DC
  8
0
  6
CONTINUOUS
 62
     0
 10
639.82000000000005
 20
848.16943476551864
 30
0.0
 11
639.82000000000005
 21
848.10943476551859
 31
0.0
 12
640.0
 22
848.13943476551856
 32
0.0
 13
640.0
 23
848.13943476551856
 33
0.0
  0
INSERT
  5
4DD
  8
0
  6
CONTINUOUS
  2
*U27
 10
0.0
 20
0.0
 30
0.0
  0
POINT
  5
4DE
  8
DEFPOINTS
  6
CONTINUOUS
 62
     0
 10
-150.0
 20
800.0
 30
0.0
  0
POINT
  5
4DF
  8
DEFPOINTS
  6
CONTINUOUS
 62
     0
 10
640.0
 20
800.0
 30
0.0
  0
POINT
  5
4E0
  8
DEFPOINTS
  6
CONTINUOUS
 62
     0
 10
640.0
 20
848.13943476551856
 30
0.0
  0
ENDBLK
  5
4B2
  8
0
  0
BLOCK
  8
0
  2
A$C4D772E8E
 70
     0
 10
0.0
 20
0.0
 30
0.0
  3
A$C4D772E8E
  1

  0
LINE
  5
940
  8
200
  6
AUSGEZOGEN
 10
126.99999986363579
 20
50.000000607569739
 30
0.0
 11
214.999999863634
 21
50.000000607573376
 31
0.0
  0
LINE
  5
941
  8
200
  6
AUSGEZOGEN
 10
-0.0000001363641502
 20
39.000000607571558
 30
0.0
 11
341.999999863634
 21
39.000000607571558
 31
0.0
  0
LINE
  5
942
  8
200
  6
AUSGEZOGEN
 10
-0.0000001363641502
 20
0.0000006075679266
 30
0.0
 11
-0.0000001363641502
 21
39.000000607571558
 31
0.0
  0
LINE
  5
943
  8
200
  6
AUSGEZOGEN
 10
204.999999863634
 20
63.046969165868163
 30
0.0
 11
136.999999863634
 21
63.046969165868163
 31
0.0
  0
LINE
  5
944
  8
200
  6
AUSGEZOGEN
 10
207.999999863634
 20
71.046969165868163
 30
0.0
 11
133.999999863634
 21
71.046969165868163
 31
0.0
  0
ARC
  5
945
  8
200
  6
AUSGEZOGEN
 10
133.999999863634
 20
56.04696916586817
 30
0.0
 40
15.0
 50
90.0
 51
180.0
  0
ARC
  5
946
  8
200
  6
AUSGEZOGEN
 10
136.999999863634
 20
53.046969165868163
 30
0.0
 40
10.0
 50
90.0
 51
180.0
  0
LINE
  5
947
  8
200
  6
AUSGEZOGEN
 10
118.999999863634
 20
39.000000607570648
 30
0.0
 11
118.999999863634
 21
56.04696916586817
 31
0.0
  0
LINE
  5
948
  8
200
  6
AUSGEZOGEN
 10
126.999999863634
 20
39.000000607570648
 30
0.0
 11
126.999999863634
 21
53.046969165868163
 31
0.0
  0
ARC
  5
949
  8
200
  6
AUSGEZOGEN
 10
207.999999863634
 20
56.04696916586817
 30
0.0
 40
15.0
 50
0.0
 51
90.0
  0
ARC
  5
94A
  8
200
  6
AUSGEZOGEN
 10
204.999999863634
 20
53.046969165868163
 30
0.0
 40
10.0
 50
0.0
 51
90.0
  0
LINE
  5
94B
  8
200
  6
AUSGEZOGEN
 10
214.999999863634
 20
39.000000607570648
 30
0.0
 11
214.999999863634
 21
53.046969165868163
 31
0.0
  0
LINE
  5
94C
  8
200
  6
AUSGEZOGEN
 10
222.999999863634
 20
39.000000607570648
 30
0.0
 11
222.999999863634
 21
56.04696916586817
 31
0.0
  0
LINE
  5
94D
  8
200
  6
AUSGEZOGEN
 10
341.999999863634
 20
39.000000607571558
 30
0.0
 11
341.999999863634
 21
0.0000006075642887
 31
0.0
  0
ENDBLK
  5
94E
  8
0
  0
BLOCK
  8
0
  2
A$C45BC7F34
 70
     0
 10
0.0
 20
0.0
 30
0.0
  3
A$C45BC7F34
  1

  0
LINE
  5
96F
  8
200
  6
AUSGEZOGEN
 10
-0.0000078022567322
 20
39.00000107735832
 30
0.0
 11
1316.999992197741
 21
39.00000107735832
 31
0.0
  0
LINE
  5
970
  8
200
  6
AUSGEZOGEN
 10
-0.0000078022567322
 20
0.0000010773546819
 30
0.0
 11
-0.0000078022567322
 21
39.00000107735832
 31
0.0
  0
LINE
  5
971
  8
200
  6
AUSGEZOGEN
 10
692.49999219774145
 20
63.046969635654932
 30
0.0
 11
624.49999219774145
 21
63.046969635654932
 31
0.0
  0
LINE
  5
972
  8
200
  6
AUSGEZOGEN
 10
695.49999219774145
 20
71.046969635654932
 30
0.0
 11
621.49999219774145
 21
71.046969635654932
 31
0.0
  0
ARC
  5
973
  8
200
  6
AUSGEZOGEN
 10
621.49999219774145
 20
56.046969635654918
 30
0.0
 40
15.0
 50
90.0
 51
180.0
  0
ARC
  5
974
  8
200
  6
AUSGEZOGEN
 10
624.49999219774145
 20
53.046969635654932
 30
0.0
 40
10.0
 50
90.0
 51
180.0
  0
LINE
  5
975
  8
200
  6
AUSGEZOGEN
 10
606.49999219774145
 20
39.00000107735741
 30
0.0
 11
606.49999219774145
 21
56.046969635654918
 31
0.0
  0
LINE
  5
976
  8
200
  6
AUSGEZOGEN
 10
614.49999219774145
 20
39.00000107735741
 30
0.0
 11
614.49999219774145
 21
53.046969635654932
 31
0.0
  0
ARC
  5
977
  8
200
  6
AUSGEZOGEN
 10
695.49999219774145
 20
56.046969635654918
 30
0.0
 40
15.0
 50
0.0
 51
90.0
  0
ARC
  5
978
  8
200
  6
AUSGEZOGEN
 10
692.49999219774145
 20
53.046969635654932
 30
0.0
 40
10.0
 50
0.0
 51
90.0
  0
LINE
  5
979
  8
200
  6
AUSGEZOGEN
 10
702.49999219774145
 20
39.00000107735741
 30
0.0
 11
702.49999219774145
 21
53.046969635654932
 31
0.0
  0
LINE
  5
97A
  8
200
  6
AUSGEZOGEN
 10
710.49999219774145
 20
39.00000107735741
 30
0.0
 11
710.49999219774145
 21
56.046969635654918
 31
0.0
  0
LINE
  5
97B
  8
200
  6
AUSGEZOGEN
 10
1316.999992197741
 20
39.00000107735832
 30
0.0
 11
1316.999992197741
 21
0.0000010773510439
 31
0.0
  0
ENDBLK
  5
97F
  8
0
  0
BLOCK
  8
0
  2
*U16
 70
     1
 10
0.0
 20
0.0
 30
0.0
  3
*U16
  1

  0
TEXT
  5
A3F
  8
0
  6
CONTINUOUS
 62
     0
 10
1164.098768076884
 20
617.13213657372137
 30
0.0
 40
0.18
  1
140.6325
  0
ENDBLK
  5
A41
  8
0
  0
BLOCK
  8
0
  2
*U17
 70
     1
 10
0.0
 20
0.0
 30
0.0
  3
*U17
  1

  0
TEXT
  5
A43
  8
0
  6
CONTINUOUS
 62
     0
 10
830.72505826602571
 20
628.20254297518125
 30
0.0
 40
0.18
  1
136.5601
  0
ENDBLK
  5
A45
  8
0
  0
BLOCK
  8
0
  2
*U18
 70
     1
 10
0.0
 20
0.0
 30
0.0
  3
*U18
  1

  0
TEXT
  5
A47
  8
0
  6
CONTINUOUS
 62
     0
 10
-249.99783274724521
 20
364.91000000000003
 30
0.0
 40
0.18
  1
430.0000
  0
ENDBLK
  5
A49
  8
0
  0
BLOCK
  8
0
  2
*U19
 70
     1
 10
0.0
 20
0.0
 30
0.0
  3
*U19
  1

  0
TEXT
  5
A4B
  8
0
  6
CONTINUOUS
 62
     0
 10
547.39999999999998
 20
651.90862438935983
 30
0.0
 40
0.18
  1
1400.0000
  0
ENDBLK
  5
A4D
  8
0
  0
BLOCK
  8
0
  2
*U20
 70
     1
 10
0.0
 20
0.0
 30
0.0
  3
*U20
  1

  0
TEXT
  5
A4F
  8
0
  6
CONTINUOUS
 62
     0
 10
1004.9299999999999
 20
70.928931201888332
 30
0.0
 40
0.18
  1
485.0000
  0
ENDBLK
  5
A51
  8
0
  0
BLOCK
  8
0
  2
*U21
 70
     1
 10
0.0
 20
0.0
 30
0.0
  3
*U21
  1

  0
TEXT
  5
A53
  8
0
  6
CONTINUOUS
 62
     0
 10
472.38499999999988
 20
654.35865049662084
 30
0.0
 40
0.18
  1
1250.0000
  0
ENDBLK
  5
A55
  8
0
  0
BLOCK
  8
0
  2
*U22
 70
     1
 10
0.0
 20
0.0
 30
0.0
  3
*U22
  1

  0
TEXT
  5
A57
  8
0
  6
CONTINUOUS
 62
     0
 10
475.38499999999988
 20
622.37334868233859
 30
0.0
 40
0.18
  1
1250.0000
  0
ENDBLK
  5
A59
  8
0
  0
BLOCK
  8
0
  2
*U23
 70
     1
 10
0.0
 20
0.0
 30
0.0
  3
*U23
  1

  0
TEXT
  5
A5B
  8
0
  6
CONTINUOUS
 62
     0
 10
-249.74666810746911
 20
364.91000000000003
 30
0.0
 40
0.18
  1
430.0000
  0
ENDBLK
  5
A5D
  8
0
  0
BLOCK
  8
0
  2
*U24
 70
     1
 10
0.0
 20
0.0
 30
0.0
  3
*U24
  1

  0
TEXT
  5
A5F
  8
0
  6
CONTINUOUS
 62
     0
 10
474.36999999999978
 20
-102.0120635241677
 30
0.0
 40
0.18
  1
1246.0000
  0
ENDBLK
  5
A61
  8
0
  0
BLOCK
  8
0
  2
*U25
 70
     1
 10
0.0
 20
0.0
 30
0.0
  3
*U25
  1

  0
TEXT
  5
A63
  8
0
  6
CONTINUOUS
 62
     0
 10
295.93000000000001
 20
231.81553142623591
 30
0.0
 40
0.18
  1
889.0000
  0
ENDBLK
  5
A65
  8
0
  0
BLOCK
  8
0
  2
*U26
 70
     1
 10
0.0
 20
0.0
 30
0.0
  3
*U26
  1

  0
TEXT
  5
A67
  8
0
  6
CONTINUOUS
 62
     0
 10
923.42999999999995
 20
71.883172658634663
 30
0.0
 40
0.18
  1
322.0000
  0
ENDBLK
  5
A69
  8
0
  0
BLOCK
  8
0
  2
*U27
 70
     1
 10
0.0
 20
0.0
 30
0.0
  3
*U27
  1

  0
TEXT
  5
A6B
  8
0
  6
CONTINUOUS
 62
     0
 10
244.44499999999999
 20
848.04943476551875
 30
0.0
 40
0.18
  1
790.0000
  0
ENDBLK
  5
A6D
  8
0
  0
ENDSEC
  0
SECTION
  2
ENTITIES
  0
LINE
  5
6BF
  8
400
  6
AUSGEZOGEN
 10
879.64799636389398
 20
-5.1490173931906611
 30
0.0
 11
1346.647996363894
 21
296.35098260680923
 31
0.0
  0
LINE
  5
6C0
  8
400
  6
AUSGEZOGEN
 10
3066.2779963638941
 20
296.35098260680923
 30
0.0
 11
1346.647996363894
 21
296.35098260680923
 31
0.0
  0
LINE
  5
6C1
  8
400
  6
AUSGEZOGEN
 10
879.64799636389398
 20
-5.1490173931906611
 30
0.0
 11
879.64799636389398
 21
69.850982606809339
 31
0.0
  0
LINE
  5
6C2
  8
400
  6
AUSGEZOGEN
 10
879.64799636389398
 20
-80.149017393190661
 30
0.0
 11
879.64799636389398
 21
-5.1490173931906611
 31
0.0
  0
LINE
  5
6C3
  8
400
  6
AUSGEZOGEN
 10
954.64799636389398
 20
-5.1490173931906611
 30
0.0
 11
879.64799636389398
 21
-5.1490173931906611
 31
0.0
  0
LINE
  5
6C4
  8
400
  6
AUSGEZOGEN
 10
954.64799636389398
 20
-5.1490173931906611
 30
0.0
 11
1029.647996363894
 21
-5.1490173931906611
 31
0.0
  0
CIRCLE
  5
6C5
  8
400
  6
AUSGEZOGEN
 10
879.64799636389398
 20
-5.1490173931906611
 30
0.0
 40
50.0
  0
LINE
  5
6C6
  8
200
  6
AUSGEZOGEN
 10
-675.35200363610591
 20
744.85098260680923
 30
0.0
 11
-675.35200363610591
 21
-5.1490173931906611
 31
0.0
  0
LINE
  5
6C7
  8
200
  6
AUSGEZOGEN
 10
-677.35200363610602
 20
844.85098260680911
 30
0.0
 11
-677.35200363610602
 21
744.85098260680923
 31
0.0
  0
LINE
  5
6C8
  8
200
  6
AUSGEZOGEN
 10
1047.647996363894
 20
844.85098260680911
 30
0.0
 11
1047.647996363894
 21
744.85098260680923
 31
0.0
  0
LINE
  5
6C9
  8
200
  6
AUSGEZOGEN
 10
1047.647996363894
 20
794.85098260680923
 30
0.0
 11
-677.35200363610602
 21
794.85098260680923
 31
0.0
  0
LINE
  5
6CA
  8
200
  6
AUSGEZOGEN
 10
1045.647996363894
 20
-5.1490173931906611
 30
0.0
 11
1045.647996363894
 21
744.85098260680923
 31
0.0
  0
LINE
  5
6CB
  8
200
  6
AUSGEZOGEN
 10
-612.35200363610602
 20
-150.1490173931906
 30
0.0
 11
-612.35200363610602
 21
-140.1490173931906
 31
0.0
  0
LINE
  5
6CC
  8
200
  6
AUSGEZOGEN
 10
-582.35200363610602
 20
-140.1490173931906
 30
0.0
 11
-582.35200363610602
 21
-150.1490173931906
 31
0.0
  0
LINE
  5
6CD
  8
200
  6
AUSGEZOGEN
 10
-616.95200363610593
 20
-155.1490173931906
 30
0.0
 11
-616.95200363610593
 21
-150.1490173931906
 31
0.0
  0
LINE
  5
6CE
  8
200
  6
AUSGEZOGEN
 10
-577.75200363610588
 20
-155.1490173931906
 30
0.0
 11
-616.95200363610593
 21
-155.1490173931906
 31
0.0
  0
LINE
  5
6CF
  8
200
  6
AUSGEZOGEN
 10
-616.95200363610593
 20
-150.1490173931906
 30
0.0
 11
-577.75200363610588
 21
-150.1490173931906
 31
0.0
  0
LINE
  5
6D0
  8
200
  6
AUSGEZOGEN
 10
-577.75200363610588
 20
-155.1490173931906
 30
0.0
 11
-577.75200363610588
 21
-150.1490173931906
 31
0.0
  0
LINE
  5
6D1
  8
200
  6
AUSGEZOGEN
 10
-617.35200363610602
 20
-5.1490173931906611
 30
0.0
 11
-617.35200363610602
 21
-140.1490173931906
 31
0.0
  0
LINE
  5
6D2
  8
200
  6
AUSGEZOGEN
 10
-577.35200363610591
 20
-140.1490173931906
 30
0.0
 11
-617.35200363610602
 21
-140.1490173931906
 31
0.0
  0
LINE
  5
6D3
  8
200
  6
AUSGEZOGEN
 10
-617.35200363610602
 20
-135.1490173931906
 30
0.0
 11
-577.35200363610591
 21
-135.1490173931906
 31
0.0
  0
LINE
  5
6D4
  8
200
  6
AUSGEZOGEN
 10
-577.35200363610591
 20
-5.1490173931906611
 30
0.0
 11
-577.35200363610591
 21
-140.1490173931906
 31
0.0
  0
LINE
  5
6D5
  8
200
  6
AUSGEZOGEN
 10
1045.647996363894
 20
-5.1490173931906611
 30
0.0
 11
-675.35200363610591
 21
-5.1490173931906611
 31
0.0
  0
LINE
  5
6D6
  8
200
  6
AUSGEZOGEN
 10
650.64799636389375
 20
-140.1490173931906
 30
0.0
 11
650.64799636389375
 21
-5.1490173931906611
 31
0.0
  0
LINE
  5
6D7
  8
200
  6
AUSGEZOGEN
 10
690.64799636389421
 20
-135.1490173931906
 30
0.0
 11
650.64799636389375
 21
-135.1490173931906
 31
0.0
  0
LINE
  5
6D8
  8
200
  6
AUSGEZOGEN
 10
690.64799636389421
 20
-5.1490173931906611
 30
0.0
 11
690.64799636389421
 21
-140.1490173931906
 31
0.0
  0
LINE
  5
6D9
  8
200
  6
AUSGEZOGEN
 10
651.04799636389339
 20
-155.1490173931906
 30
0.0
 11
651.04799636389339
 21
-150.1490173931906
 31
0.0
  0
LINE
  5
6DA
  8
200
  6
AUSGEZOGEN
 10
690.24799636389378
 20
-155.1490173931906
 30
0.0
 11
651.04799636389339
 21
-155.1490173931906
 31
0.0
  0
LINE
  5
6DB
  8
200
  6
AUSGEZOGEN
 10
690.24799636389378
 20
-150.1490173931906
 30
0.0
 11
690.24799636389378
 21
-155.1490173931906
 31
0.0
  0
LINE
  5
6DC
  8
200
  6
AUSGEZOGEN
 10
655.64799636389375
 20
-140.1490173931906
 30
0.0
 11
655.64799636389375
 21
-150.1490173931906
 31
0.0
  0
LINE
  5
6DD
  8
200
  6
AUSGEZOGEN
 10
690.24799636389378
 20
-150.1490173931906
 30
0.0
 11
651.04799636389339
 21
-150.1490173931906
 31
0.0
  0
LINE
  5
6DE
  8
200
  6
AUSGEZOGEN
 10
650.64799636389375
 20
-140.1490173931906
 30
0.0
 11
690.64799636389421
 21
-140.1490173931906
 31
0.0
  0
LINE
  5
6DF
  8
200
  6
AUSGEZOGEN
 10
685.64799636389375
 20
-150.1490173931906
 30
0.0
 11
685.64799636389375
 21
-140.1490173931906
 31
0.0
  0
LINE
  5
6E0
  8
200
  6
AUSGEZOGEN
 10
710.64799636389375
 20
734.85098260680923
 30
0.0
 11
710.64799636389375
 21
644.85098260680923
 31
0.0
  0
LINE
  5
6E1
  8
200
  6
AUSGEZOGEN
 10
1032.647996363894
 20
734.85098260680923
 30
0.0
 11
710.64799636389375
 21
734.85098260680923
 31
0.0
  0
LINE
  5
6E2
  8
200
  6
AUSGEZOGEN
 10
1032.647996363894
 20
5.0509826068093258
 30
0.0
 11
710.64799636389375
 21
5.0509826068093258
 31
0.0
  0
LINE
  5
6E3
  8
200
  6
AUSGEZOGEN
 10
710.74799636389378
 20
614.85098260680911
 30
0.0
 11
710.64799636389375
 21
5.0509826068093258
 31
0.0
  0
LINE
  5
6E4
  8
200
  6
AUSGEZOGEN
 10
1032.647996363894
 20
614.85098260680911
 30
0.0
 11
710.74799636389378
 21
614.85098260680911
 31
0.0
  0
LINE
  5
6E5
  8
200
  6
AUSGEZOGEN
 10
1004.647996363894
 20
434.85098260680928
 30
0.0
 11
984.64799636389409
 21
404.8509826068094
 31
0.0
  0
LINE
  5
6E6
  8
200
  6
AUSGEZOGEN
 10
964.64799636389398
 20
404.8509826068094
 30
0.0
 11
984.64799636389409
 21
434.85098260680928
 31
0.0
  0
LINE
  5
6E7
  8
200
  6
AUSGEZOGEN
 10
964.64799636389398
 20
434.85098260680928
 30
0.0
 11
944.64799636389409
 21
404.8509826068094
 31
0.0
  0
LINE
  5
6E8
  8
200
  6
AUSGEZOGEN
 10
924.64799636389409
 20
404.8509826068094
 30
0.0
 11
944.64799636389409
 21
434.85098260680928
 31
0.0
  0
LINE
  5
6E9
  8
200
  6
AUSGEZOGEN
 10
924.64799636389409
 20
434.85098260680928
 30
0.0
 11
904.64799636389398
 21
404.8509826068094
 31
0.0
  0
LINE
  5
6EA
  8
200
  6
AUSGEZOGEN
 10
924.64799636389409
 20
484.85098260680928
 30
0.0
 11
904.64799636389398
 21
454.8509826068094
 31
0.0
  0
LINE
  5
6EB
  8
200
  6
AUSGEZOGEN
 10
924.64799636389409
 20
454.8509826068094
 30
0.0
 11
944.64799636389409
 21
484.85098260680928
 31
0.0
  0
LINE
  5
6EC
  8
200
  6
AUSGEZOGEN
 10
964.64799636389398
 20
484.85098260680928
 30
0.0
 11
944.64799636389409
 21
454.8509826068094
 31
0.0
  0
LINE
  5
6ED
  8
200
  6
AUSGEZOGEN
 10
964.64799636389398
 20
454.8509826068094
 30
0.0
 11
984.64799636389409
 21
484.85098260680928
 31
0.0
  0
LINE
  5
6EE
  8
200
  6
AUSGEZOGEN
 10
1004.647996363894
 20
484.85098260680928
 30
0.0
 11
984.64799636389409
 21
454.8509826068094
 31
0.0
  0
LINE
  5
6EF
  8
200
  6
AUSGEZOGEN
 10
1004.647996363894
 20
54.850982606809339
 30
0.0
 11
984.64799636389409
 21
24.850982606809339
 31
0.0
  0
LINE
  5
6F0
  8
200
  6
AUSGEZOGEN
 10
964.64799636389398
 20
24.850982606809339
 30
0.0
 11
984.64799636389409
 21
54.850982606809339
 31
0.0
  0
LINE
  5
6F1
  8
200
  6
AUSGEZOGEN
 10
964.64799636389398
 20
54.850982606809339
 30
0.0
 11
944.64799636389409
 21
24.850982606809339
 31
0.0
  0
LINE
  5
6F2
  8
200
  6
AUSGEZOGEN
 10
924.64799636389409
 20
24.850982606809339
 30
0.0
 11
944.64799636389409
 21
54.850982606809339
 31
0.0
  0
LINE
  5
6F3
  8
200
  6
AUSGEZOGEN
 10
984.64799636389409
 20
74.850982606809339
 30
0.0
 11
1004.647996363894
 21
104.8509826068093
 31
0.0
  0
LINE
  5
6F4
  8
200
  6
AUSGEZOGEN
 10
984.64799636389409
 20
104.8509826068093
 30
0.0
 11
964.64799636389398
 21
74.850982606809339
 31
0.0
  0
LINE
  5
6F5
  8
200
  6
AUSGEZOGEN
 10
944.64799636389409
 20
74.850982606809339
 30
0.0
 11
964.64799636389398
 21
104.8509826068093
 31
0.0
  0
LINE
  5
6F6
  8
200
  6
AUSGEZOGEN
 10
944.64799636389409
 20
104.8509826068093
 30
0.0
 11
924.64799636389409
 21
74.850982606809339
 31
0.0
  0
LINE
  5
6F7
  8
200
  6
AUSGEZOGEN
 10
904.64799636389398
 20
74.850982606809339
 30
0.0
 11
924.64799636389409
 21
104.8509826068093
 31
0.0
  0
LINE
  5
6F8
  8
200
  6
AUSGEZOGEN
 10
904.64799636389398
 20
24.850982606809339
 30
0.0
 11
924.64799636389409
 21
54.850982606809339
 31
0.0
  0
LINE
  5
6F9
  8
200
  6
AUSGEZOGEN
 10
1032.647996363894
 20
341.85098260680928
 30
0.0
 11
710.64799636389375
 21
341.85098260680928
 31
0.0
  0
LINE
  5
6FA
  8
200
  6
AUSGEZOGEN
 10
710.64799636389375
 20
376.85098260680928
 30
0.0
 11
1032.647996363894
 21
376.85098260680928
 31
0.0
  0
LINE
  5
6FB
  8
200
  6
AUSGEZOGEN
 10
1032.647996363894
 20
386.85098260680928
 30
0.0
 11
710.64799636389375
 21
386.85098260680928
 31
0.0
  0
LINE
  5
6FC
  8
200
  6
AUSGEZOGEN
 10
710.64799636389375
 20
331.8509826068094
 30
0.0
 11
1032.647996363894
 21
331.8509826068094
 31
0.0
  0
LINE
  5
6FD
  8
200
  6
AUSGEZOGEN
 10
710.74799636389378
 20
644.85098260680923
 30
0.0
 11
710.74799636389378
 21
614.85098260680911
 31
0.0
  0
LINE
  5
6FE
  8
200
  6
AUSGEZOGEN
 10
1032.647996363894
 20
644.85098260680923
 30
0.0
 11
710.64799636389375
 21
644.85098260680923
 31
0.0
  0
LINE
  5
6FF
  8
200
  6
AUSGEZOGEN
 10
1032.647996363894
 20
5.0509826068093258
 30
0.0
 11
1032.647996363894
 21
734.85098260680923
 31
0.0
  0
LINE
  5
700
  8
200
  6
AUSGEZOGEN
 10
258.54799636389419
 20
713.85098260680923
 30
0.0
 11
688.44799636389394
 21
713.85098260680923
 31
0.0
  0
LINE
  5
701
  8
200
  6
AUSGEZOGEN
 10
258.54799636389419
 20
733.85098260680923
 30
0.0
 11
258.54799636389419
 21
699.35098260680923
 31
0.0
  0
LINE
  5
702
  8
200
  6
AUSGEZOGEN
 10
688.44799636389394
 20
733.85098260680923
 30
0.0
 11
258.54799636389419
 21
733.85098260680923
 31
0.0
  0
LINE
  5
703
  8
200
  6
AUSGEZOGEN
 10
688.44799636389394
 20
699.35098260680923
 30
0.0
 11
688.44799636389394
 21
733.85098260680923
 31
0.0
  0
LINE
  5
704
  8
200
  6
AUSGEZOGEN
 10
258.54799636389419
 20
4.9509826068093332
 30
0.0
 11
688.44799636389394
 21
4.9509826068093332
 31
0.0
  0
LINE
  5
705
  8
200
  6
AUSGEZOGEN
 10
258.64799636389409
 20
669.85098260680923
 30
0.0
 11
258.54799636389419
 21
4.9509826068093332
 31
0.0
  0
LINE
  5
706
  8
200
  6
AUSGEZOGEN
 10
688.44799636389394
 20
669.85098260680923
 30
0.0
 11
258.64799636389409
 21
669.85098260680923
 31
0.0
  0
LINE
  5
707
  8
200
  6
AUSGEZOGEN
 10
258.54799636389419
 20
699.35098260680923
 30
0.0
 11
258.64799636389409
 21
669.85098260680923
 31
0.0
  0
LINE
  5
708
  8
200
  6
AUSGEZOGEN
 10
688.44799636389394
 20
699.35098260680923
 30
0.0
 11
258.54799636389419
 21
699.35098260680923
 31
0.0
  0
LINE
  5
709
  8
200
  6
AUSGEZOGEN
 10
688.44799636389394
 20
4.9509826068093332
 30
0.0
 11
688.44799636389394
 21
699.35098260680923
 31
0.0
  0
TEXT
  5
70A
  8
400
 10
1360.147996363894
 20
309.85098260680928
 30
0.0
 40
45.0
  1
EZ: 230V 50Hz, Kabellänge 2,5m mit Schukostecker 0,44kW (OKFF 150mm)
 41
0.6
  0
ATTDEF
  5
70B
  8
550
 10
-667.35200363610602
 20
-55.149017393190661
 30
0.0
 40
30.0
  1
CCO-KTM721140
  3
HKI-Nummer
  2
CCO-KSM731171-V
 70
     1
  0
TEXT
  5
70C
  8
510
 10
-667.35200363610602
 20
-200.14901739319069
 30
0.0
 40
30.0
  1
CCO-KSM731171-D
  0
LINE
  5
70D
  8
200
  6
AUSGEZOGEN
 10
911.48395197922252
 20
724.42684534824627
 30
0.0
 11
914.52142160422227
 21
724.42684534824707
 31
0.0
  0
LINE
  5
70E
  8
200
  6
AUSGEZOGEN
 10
973.3356069510719
 20
654.46357888903071
 30
0.0
 11
794.6712642698642
 21
654.46357888903071
 31
0.0
  0
ARC
  5
70F
  8
200
  6
AUSGEZOGEN
 10
973.3356069510719
 20
656.46357888903049
 30
0.0
 40
2.0
 50
270.0
 51
0.0
  0
LINE
  5
710
  8
200
  6
AUSGEZOGEN
 10
973.3356069510719
 20
724.42684534824707
 30
0.0
 11
782.51716843471706
 21
724.42684534824707
 31
0.0
  0
ARC
  5
711
  8
200
  6
AUSGEZOGEN
 10
973.3356069510719
 20
722.42684534824718
 30
0.0
 40
2.0
 50
0.0
 51
90.0
  0
LINE
  5
712
  8
200
  6
AUSGEZOGEN
 10
780.30095281617025
 20
724.42684534824707
 30
0.0
 11
780.2972711555667
 21
724.42684534824707
 31
0.0
  0
LINE
  5
713
  8
200
  6
AUSGEZOGEN
 10
975.3356069510719
 20
722.42684534824718
 30
0.0
 11
975.3356069510719
 21
656.46357888903049
 31
0.0
  0
LINE
  5
714
  8
200
  6
AUSGEZOGEN
 10
975.3356069510719
 20
664.4635788890306
 30
0.0
 11
975.3356069510719
 21
669.46357888903071
 31
0.0
  0
ARC
  5
715
  8
200
  6
AUSGEZOGEN
 10
1215.0091488744181
 20
768.01451642403288
 30
0.0
 40
436.88797281457352
 50
186.01715560743079
 51
194.8627815219495
  0
ARC
  5
716
  8
200
  6
AUSGEZOGEN
 10
782.51716843471706
 20
722.42684534824718
 30
0.0
 40
2.0
 50
90.0
 51
186.01715560743079
  0
ARC
  5
717
  8
200
  6
AUSGEZOGEN
 10
794.6712642698642
 20
656.46357888903049
 30
0.0
 40
2.0
 50
194.86278152189391
 51
270.0
  0
ARC
  5
718
  8
200
  6
AUSGEZOGEN
 10
1215.0091488744181
 20
768.01451642403288
 30
0.0
 40
433.88797281457352
 50
185.76556507526391
 51
195.1712939693588
  0
LINE
  5
719
  8
200
  6
AUSGEZOGEN
 10
879.53560695107183
 20
698.71357888903174
 30
0.0
 11
890.53560695107205
 21
698.71357888903174
 31
0.0
  0
LINE
  5
71A
  8
200
  6
AUSGEZOGEN
 10
879.53560695107183
 20
699.21357888903174
 30
0.0
 11
890.53560695107205
 21
699.21357888903174
 31
0.0
  0
ARC
  5
71B
  8
200
  6
AUSGEZOGEN
 10
879.53560695107183
 20
701.71357888903174
 30
0.0
 40
3.0
 50
180.0
 51
270.0
  0
ARC
  5
71C
  8
200
  6
AUSGEZOGEN
 10
879.53560695107183
 20
701.71357888903174
 30
0.0
 40
2.5
 50
180.0
 51
270.0
  0
LINE
  5
71D
  8
200
  6
AUSGEZOGEN
 10
893.53560695107171
 20
701.71357888903174
 30
0.0
 11
893.53560695107171
 21
712.71357888903174
 31
0.0
  0
LINE
  5
71E
  8
200
  6
AUSGEZOGEN
 10
893.03560695107217
 20
701.71357888903174
 30
0.0
 11
893.03560695107217
 21
712.71357888903174
 31
0.0
  0
ARC
  5
71F
  8
200
  6
AUSGEZOGEN
 10
890.53560695107205
 20
701.71357888903174
 30
0.0
 40
3.0
 50
270.0
 51
0.0
  0
ARC
  5
720
  8
200
  6
AUSGEZOGEN
 10
890.53560695107205
 20
701.71357888903174
 30
0.0
 40
2.5
 50
270.0
 51
0.0
  0
LINE
  5
721
  8
200
  6
AUSGEZOGEN
 10
890.53560695107205
 20
715.71357888903174
 30
0.0
 11
879.53560695107183
 21
715.71357888903174
 31
0.0
  0
LINE
  5
722
  8
200
  6
AUSGEZOGEN
 10
890.53560695107205
 20
715.21357888903174
 30
0.0
 11
879.53560695107183
 21
715.21357888903174
 31
0.0
  0
ARC
  5
723
  8
200
  6
AUSGEZOGEN
 10
890.53560695107205
 20
712.71357888903174
 30
0.0
 40
3.0
 50
0.0
 51
90.0
  0
ARC
  5
724
  8
200
  6
AUSGEZOGEN
 10
890.53560695107205
 20
712.71357888903174
 30
0.0
 40
2.5
 50
0.0
 51
90.0
  0
LINE
  5
725
  8
200
  6
AUSGEZOGEN
 10
876.53560695107205
 20
712.71357888903174
 30
0.0
 11
876.53560695107205
 21
701.71357888903174
 31
0.0
  0
LINE
  5
726
  8
200
  6
AUSGEZOGEN
 10
877.0356069510716
 20
712.71357888903174
 30
0.0
 11
877.0356069510716
 21
701.71357888903174
 31
0.0
  0
ARC
  5
727
  8
200
  6
AUSGEZOGEN
 10
879.53560695107183
 20
712.71357888903174
 30
0.0
 40
3.0
 50
90.0
 51
180.0
  0
ARC
  5
728
  8
200
  6
AUSGEZOGEN
 10
879.53560695107183
 20
712.71357888903174
 30
0.0
 40
2.5
 50
90.0
 51
180.0
  0
LINE
  5
729
  8
200
  6
AUSGEZOGEN
 10
906.03560695107149
 20
698.71357888903174
 30
0.0
 11
917.03560695107183
 21
698.71357888903174
 31
0.0
  0
LINE
  5
72A
  8
200
  6
AUSGEZOGEN
 10
906.03560695107149
 20
699.21357888903174
 30
0.0
 11
917.03560695107183
 21
699.21357888903174
 31
0.0
  0
ARC
  5
72B
  8
200
  6
AUSGEZOGEN
 10
906.03560695107149
 20
701.71357888903174
 30
0.0
 40
3.0
 50
180.0
 51
270.0
  0
ARC
  5
72C
  8
200
  6
AUSGEZOGEN
 10
906.03560695107149
 20
701.71357888903174
 30
0.0
 40
2.5
 50
180.0
 51
270.0
  0
LINE
  5
72D
  8
200
  6
AUSGEZOGEN
 10
920.03560695107205
 20
701.71357888903174
 30
0.0
 11
920.03560695107205
 21
712.71357888903174
 31
0.0
  0
LINE
  5
72E
  8
200
  6
AUSGEZOGEN
 10
919.53560695107194
 20
701.71357888903174
 30
0.0
 11
919.53560695107194
 21
712.71357888903174
 31
0.0
  0
ARC
  5
72F
  8
200
  6
AUSGEZOGEN
 10
917.03560695107183
 20
701.71357888903174
 30
0.0
 40
3.0
 50
270.0
 51
0.0
  0
ARC
  5
730
  8
200
  6
AUSGEZOGEN
 10
917.03560695107183
 20
701.71357888903174
 30
0.0
 40
2.5
 50
270.0
 51
0.0
  0
LINE
  5
731
  8
200
  6
AUSGEZOGEN
 10
917.03560695107183
 20
715.71357888903174
 30
0.0
 11
906.03560695107149
 21
715.71357888903174
 31
0.0
  0
LINE
  5
732
  8
200
  6
AUSGEZOGEN
 10
917.03560695107183
 20
715.21357888903174
 30
0.0
 11
906.03560695107149
 21
715.21357888903174
 31
0.0
  0
ARC
  5
733
  8
200
  6
AUSGEZOGEN
 10
917.03560695107183
 20
712.71357888903174
 30
0.0
 40
3.0
 50
0.0
 51
90.0
  0
ARC
  5
734
  8
200
  6
AUSGEZOGEN
 10
917.03560695107183
 20
712.71357888903174
 30
0.0
 40
2.5
 50
0.0
 51
90.0
  0
LINE
  5
735
  8
200
  6
AUSGEZOGEN
 10
903.03560695107205
 20
712.71357888903174
 30
0.0
 11
903.03560695107205
 21
701.71357888903174
 31
0.0
  0
LINE
  5
736
  8
200
  6
AUSGEZOGEN
 10
903.53560695107194
 20
712.71357888903174
 30
0.0
 11
903.53560695107194
 21
701.71357888903174
 31
0.0
  0
ARC
  5
737
  8
200
  6
AUSGEZOGEN
 10
906.03560695107149
 20
712.71357888903174
 30
0.0
 40
3.0
 50
90.0
 51
180.0
  0
ARC
  5
738
  8
200
  6
AUSGEZOGEN
 10
906.03560695107149
 20
712.71357888903174
 30
0.0
 40
2.5
 50
90.0
 51
180.0
  0
LINE
  5
739
  8
200
  6
AUSGEZOGEN
 10
932.53560695107069
 20
698.71357888903174
 30
0.0
 11
943.53560695107149
 21
698.71357888903174
 31
0.0
  0
LINE
  5
73A
  8
200
  6
AUSGEZOGEN
 10
932.53560695107069
 20
699.21357888903174
 30
0.0
 11
943.53560695107149
 21
699.21357888903174
 31
0.0
  0
ARC
  5
73B
  8
200
  6
AUSGEZOGEN
 10
932.53560695107069
 20
701.71357888903174
 30
0.0
 40
3.0
 50
180.0
 51
270.0
  0
ARC
  5
73C
  8
200
  6
AUSGEZOGEN
 10
932.53560695107069
 20
701.71357888903174
 30
0.0
 40
2.5
 50
180.0
 51
270.0
  0
LINE
  5
73D
  8
200
  6
AUSGEZOGEN
 10
946.53560695107183
 20
701.71357888903174
 30
0.0
 11
946.53560695107183
 21
712.71357888903174
 31
0.0
  0
LINE
  5
73E
  8
200
  6
AUSGEZOGEN
 10
946.03560695107194
 20
701.71357888903174
 30
0.0
 11
946.03560695107194
 21
712.71357888903174
 31
0.0
  0
ARC
  5
73F
  8
200
  6
AUSGEZOGEN
 10
943.53560695107149
 20
701.71357888903174
 30
0.0
 40
3.0
 50
270.0
 51
0.0
  0
ARC
  5
740
  8
200
  6
AUSGEZOGEN
 10
943.53560695107149
 20
701.71357888903174
 30
0.0
 40
2.5
 50
270.0
 51
0.0
  0
LINE
  5
741
  8
200
  6
AUSGEZOGEN
 10
943.53560695107149
 20
715.71357888903174
 30
0.0
 11
932.53560695107069
 21
715.71357888903174
 31
0.0
  0
LINE
  5
742
  8
200
  6
AUSGEZOGEN
 10
943.53560695107149
 20
715.21357888903174
 30
0.0
 11
932.53560695107069
 21
715.21357888903174
 31
0.0
  0
ARC
  5
743
  8
200
  6
AUSGEZOGEN
 10
943.53560695107149
 20
712.71357888903174
 30
0.0
 40
3.0
 50
0.0
 51
90.0
  0
ARC
  5
744
  8
200
  6
AUSGEZOGEN
 10
943.53560695107149
 20
712.71357888903174
 30
0.0
 40
2.5
 50
0.0
 51
90.0
  0
LINE
  5
745
  8
200
  6
AUSGEZOGEN
 10
929.53560695107183
 20
712.71357888903174
 30
0.0
 11
929.53560695107183
 21
701.71357888903174
 31
0.0
  0
LINE
  5
746
  8
200
  6
AUSGEZOGEN
 10
930.03560695107194
 20
712.71357888903174
 30
0.0
 11
930.03560695107194
 21
701.71357888903174
 31
0.0
  0
ARC
  5
747
  8
200
  6
AUSGEZOGEN
 10
932.53560695107069
 20
712.71357888903174
 30
0.0
 40
3.0
 50
90.0
 51
180.0
  0
ARC
  5
748
  8
200
  6
AUSGEZOGEN
 10
932.53560695107069
 20
712.71357888903174
 30
0.0
 40
2.5
 50
90.0
 51
180.0
  0
LINE
  5
749
  8
200
  6
AUSGEZOGEN
 10
932.53560695107069
 20
672.21357888903174
 30
0.0
 11
943.53560695107149
 21
672.21357888903174
 31
0.0
  0
LINE
  5
74A
  8
200
  6
AUSGEZOGEN
 10
932.53560695107069
 20
672.71357888903174
 30
0.0
 11
943.53560695107149
 21
672.71357888903174
 31
0.0
  0
ARC
  5
74B
  8
200
  6
AUSGEZOGEN
 10
932.53560695107069
 20
675.21357888903174
 30
0.0
 40
3.0
 50
180.0
 51
270.0
  0
ARC
  5
74C
  8
200
  6
AUSGEZOGEN
 10
932.53560695107069
 20
675.21357888903174
 30
0.0
 40
2.5
 50
180.0
 51
270.0
  0
LINE
  5
74D
  8
200
  6
AUSGEZOGEN
 10
946.53560695107183
 20
675.21357888903174
 30
0.0
 11
946.53560695107183
 21
686.21357888903174
 31
0.0
  0
LINE
  5
74E
  8
200
  6
AUSGEZOGEN
 10
946.03560695107194
 20
675.21357888903174
 30
0.0
 11
946.03560695107194
 21
686.21357888903174
 31
0.0
  0
ARC
  5
74F
  8
200
  6
AUSGEZOGEN
 10
943.53560695107149
 20
675.21357888903174
 30
0.0
 40
3.0
 50
270.0
 51
0.0
  0
ARC
  5
750
  8
200
  6
AUSGEZOGEN
 10
943.53560695107149
 20
675.21357888903174
 30
0.0
 40
2.5
 50
270.0
 51
0.0
  0
LINE
  5
751
  8
200
  6
AUSGEZOGEN
 10
943.53560695107149
 20
689.21357888903174
 30
0.0
 11
932.53560695107069
 21
689.21357888903174
 31
0.0
  0
LINE
  5
752
  8
200
  6
AUSGEZOGEN
 10
943.53560695107149
 20
688.71357888903174
 30
0.0
 11
932.53560695107069
 21
688.71357888903174
 31
0.0
  0
ARC
  5
753
  8
200
  6
AUSGEZOGEN
 10
943.53560695107149
 20
686.21357888903174
 30
0.0
 40
3.0
 50
0.0
 51
90.0
  0
ARC
  5
754
  8
200
  6
AUSGEZOGEN
 10
943.53560695107149
 20
686.21357888903174
 30
0.0
 40
2.5
 50
0.0
 51
90.0
  0
LINE
  5
755
  8
200
  6
AUSGEZOGEN
 10
929.53560695107183
 20
686.21357888903174
 30
0.0
 11
929.53560695107183
 21
675.21357888903174
 31
0.0
  0
LINE
  5
756
  8
200
  6
AUSGEZOGEN
 10
930.03560695107194
 20
686.21357888903174
 30
0.0
 11
930.03560695107194
 21
675.21357888903174
 31
0.0
  0
ARC
  5
757
  8
200
  6
AUSGEZOGEN
 10
932.53560695107069
 20
686.21357888903174
 30
0.0
 40
3.0
 50
90.0
 51
180.0
  0
ARC
  5
758
  8
200
  6
AUSGEZOGEN
 10
932.53560695107069
 20
686.21357888903174
 30
0.0
 40
2.5
 50
90.0
 51
180.0
  0
LINE
  5
759
  8
200
  6
AUSGEZOGEN
 10
906.03560695107149
 20
672.21357888903174
 30
0.0
 11
917.03560695107183
 21
672.21357888903174
 31
0.0
  0
LINE
  5
75A
  8
200
  6
AUSGEZOGEN
 10
906.03560695107149
 20
672.71357888903174
 30
0.0
 11
917.03560695107183
 21
672.71357888903174
 31
0.0
  0
ARC
  5
75B
  8
200
  6
AUSGEZOGEN
 10
906.03560695107149
 20
675.21357888903174
 30
0.0
 40
3.0
 50
180.0
 51
270.0
  0
ARC
  5
75C
  8
200
  6
AUSGEZOGEN
 10
906.03560695107149
 20
675.21357888903174
 30
0.0
 40
2.5
 50
180.0
 51
270.0
  0
LINE
  5
75D
  8
200
  6
AUSGEZOGEN
 10
920.03560695107205
 20
675.21357888903174
 30
0.0
 11
920.03560695107205
 21
686.21357888903174
 31
0.0
  0
LINE
  5
75E
  8
200
  6
AUSGEZOGEN
 10
919.53560695107194
 20
675.21357888903174
 30
0.0
 11
919.53560695107194
 21
686.21357888903174
 31
0.0
  0
ARC
  5
75F
  8
200
  6
AUSGEZOGEN
 10
917.03560695107183
 20
675.21357888903174
 30
0.0
 40
3.0
 50
270.0
 51
0.0
  0
ARC
  5
760
  8
200
  6
AUSGEZOGEN
 10
917.03560695107183
 20
675.21357888903174
 30
0.0
 40
2.5
 50
270.0
 51
0.0
  0
LINE
  5
761
  8
200
  6
AUSGEZOGEN
 10
917.03560695107183
 20
689.21357888903174
 30
0.0
 11
906.03560695107149
 21
689.21357888903174
 31
0.0
  0
LINE
  5
762
  8
200
  6
AUSGEZOGEN
 10
917.03560695107183
 20
688.71357888903174
 30
0.0
 11
906.03560695107149
 21
688.71357888903174
 31
0.0
  0
ARC
  5
763
  8
200
  6
AUSGEZOGEN
 10
917.03560695107183
 20
686.21357888903174
 30
0.0
 40
3.0
 50
0.0
 51
90.0
  0
ARC
  5
764
  8
200
  6
AUSGEZOGEN
 10
917.03560695107183
 20
686.21357888903174
 30
0.0
 40
2.5
 50
0.0
 51
90.0
  0
LINE
  5
765
  8
200
  6
AUSGEZOGEN
 10
903.03560695107205
 20
686.21357888903174
 30
0.0
 11
903.03560695107205
 21
675.21357888903174
 31
0.0
  0
LINE
  5
766
  8
200
  6
AUSGEZOGEN
 10
903.53560695107194
 20
686.21357888903174
 30
0.0
 11
903.53560695107194
 21
675.21357888903174
 31
0.0
  0
ARC
  5
767
  8
200
  6
AUSGEZOGEN
 10
906.03560695107149
 20
686.21357888903174
 30
0.0
 40
3.0
 50
90.0
 51
180.0
  0
ARC
  5
768
  8
200
  6
AUSGEZOGEN
 10
906.03560695107149
 20
686.21357888903174
 30
0.0
 40
2.5
 50
90.0
 51
180.0
  0
LINE
  5
769
  8
200
  6
AUSGEZOGEN
 10
879.53560695107183
 20
672.21357888903174
 30
0.0
 11
890.53560695107205
 21
672.21357888903174
 31
0.0
  0
LINE
  5
76A
  8
200
  6
AUSGEZOGEN
 10
879.53560695107183
 20
672.71357888903174
 30
0.0
 11
890.53560695107205
 21
672.71357888903174
 31
0.0
  0
ARC
  5
76B
  8
200
  6
AUSGEZOGEN
 10
879.53560695107183
 20
675.21357888903174
 30
0.0
 40
3.0
 50
180.0
 51
270.0
  0
ARC
  5
76C
  8
200
  6
AUSGEZOGEN
 10
879.53560695107183
 20
675.21357888903174
 30
0.0
 40
2.5
 50
180.0
 51
270.0
  0
LINE
  5
76D
  8
200
  6
AUSGEZOGEN
 10
893.53560695107171
 20
675.21357888903174
 30
0.0
 11
893.53560695107171
 21
686.21357888903174
 31
0.0
  0
LINE
  5
76E
  8
200
  6
AUSGEZOGEN
 10
893.03560695107217
 20
675.21357888903174
 30
0.0
 11
893.03560695107217
 21
686.21357888903174
 31
0.0
  0
ARC
  5
76F
  8
200
  6
AUSGEZOGEN
 10
890.53560695107205
 20
675.21357888903174
 30
0.0
 40
3.0
 50
270.0
 51
0.0
  0
ARC
  5
770
  8
200
  6
AUSGEZOGEN
 10
890.53560695107205
 20
675.21357888903174
 30
0.0
 40
2.5
 50
270.0
 51
0.0
  0
LINE
  5
771
  8
200
  6
AUSGEZOGEN
 10
890.53560695107205
 20
689.21357888903174
 30
0.0
 11
879.53560695107183
 21
689.21357888903174
 31
0.0
  0
LINE
  5
772
  8
200
  6
AUSGEZOGEN
 10
890.53560695107205
 20
688.71357888903174
 30
0.0
 11
879.53560695107183
 21
688.71357888903174
 31
0.0
  0
ARC
  5
773
  8
200
  6
AUSGEZOGEN
 10
890.53560695107205
 20
686.21357888903174
 30
0.0
 40
3.0
 50
0.0
 51
90.0
  0
ARC
  5
774
  8
200
  6
AUSGEZOGEN
 10
890.53560695107205
 20
686.21357888903174
 30
0.0
 40
2.5
 50
0.0
 51
90.0
  0
LINE
  5
775
  8
200
  6
AUSGEZOGEN
 10
876.53560695107205
 20
686.21357888903174
 30
0.0
 11
876.53560695107205
 21
675.21357888903174
 31
0.0
  0
LINE
  5
776
  8
200
  6
AUSGEZOGEN
 10
877.0356069510716
 20
686.21357888903174
 30
0.0
 11
877.0356069510716
 21
675.21357888903174
 31
0.0
  0
ARC
  5
777
  8
200
  6
AUSGEZOGEN
 10
879.53560695107183
 20
686.21357888903174
 30
0.0
 40
3.0
 50
90.0
 51
180.0
  0
ARC
  5
778
  8
200
  6
AUSGEZOGEN
 10
879.53560695107183
 20
686.21357888903174
 30
0.0
 40
2.5
 50
90.0
 51
180.0
  0
POLYLINE
  5
779
  8
200
  6
AUSGEZOGEN
 66
     1
 10
0.0
 20
0.0
 30
0.0
 70
     1
  0
VERTEX
  5
A6E
  8
200
  6
AUSGEZOGEN
 10
815.48908758160064
 20
672.61328785574699
 30
0.0
 42
-0.4142251944132629
  0
VERTEX
  5
A6F
  8
200
  6
AUSGEZOGEN
 10
813.48903429451252
 20
674.61331399598998
 30
0.0
  0
VERTEX
  5
A70
  8
200
  6
AUSGEZOGEN
 10
813.48954012194883
 20
713.31331399527789
 30
0.0
 42
-0.4142097341243736
  0
VERTEX
  5
A71
  8
200
  6
AUSGEZOGEN
 10
815.48954012177819
 20
715.3132878543264
 30
0.0
  0
VERTEX
  5
A72
  8
200
  6
AUSGEZOGEN
 10
859.18187939255745
 20
715.3132878543264
 30
0.0
 42
-0.414213562373099
  0
VERTEX
  5
A73
  8
200
  6
AUSGEZOGEN
 10
861.18187939255768
 20
713.3132878543264
 30
0.0
  0
VERTEX
  5
A74
  8
200
  6
AUSGEZOGEN
 10
861.18187939255768
 20
674.61445199101627
 30
0.0
 42
-0.4142057586561946
  0
VERTEX
  5
A75
  8
200
  6
AUSGEZOGEN
 10
859.18193267981678
 20
672.61445199172681
 30
0.0
  0
SEQEND
  5
A76
  8
200
  6
AUSGEZOGEN
  0
CIRCLE
  5
77A
  8
200
  6
AUSGEZOGEN
 10
885.03187939255793
 20
680.71357888903106
 30
0.0
 40
6.0
  0
CIRCLE
  5
77B
  8
200
  6
AUSGEZOGEN
 10
885.03187939255793
 20
707.21357888903071
 30
0.0
 40
6.0
  0
CIRCLE
  5
77C
  8
200
  6
AUSGEZOGEN
 10
911.5318793925577
 20
680.71357888903106
 30
0.0
 40
6.0
  0
CIRCLE
  5
77D
  8
200
  6
AUSGEZOGEN
 10
911.5318793925577
 20
707.21357888903071
 30
0.0
 40
6.0
  0
CIRCLE
  5
77E
  8
200
  6
AUSGEZOGEN
 10
938.03187939255758
 20
680.71357888903106
 30
0.0
 40
6.0
  0
CIRCLE
  5
77F
  8
200
  6
AUSGEZOGEN
 10
938.03187939255758
 20
707.21357888903071
 30
0.0
 40
6.0
  0
LINE
  5
780
  8
200
  6
AUSGEZOGEN
 10
884.64799636389387
 20
404.8509826068094
 30
0.0
 11
904.64799636389398
 21
434.85098260680928
 31
0.0
  0
LINE
  5
781
  8
200
  6
AUSGEZOGEN
 10
884.64799636389387
 20
434.85098260680928
 30
0.0
 11
864.64799636389398
 21
404.8509826068094
 31
0.0
  0
LINE
  5
782
  8
200
  6
AUSGEZOGEN
 10
884.64799636389387
 20
484.85098260680928
 30
0.0
 11
864.64799636389398
 21
454.8509826068094
 31
0.0
  0
LINE
  5
783
  8
200
  6
AUSGEZOGEN
 10
884.64799636389387
 20
454.8509826068094
 30
0.0
 11
904.64799636389398
 21
484.85098260680928
 31
0.0
  0
LINE
  5
784
  8
200
  6
AUSGEZOGEN
 10
884.64799636389387
 20
24.850982606809339
 30
0.0
 11
904.64799636389398
 21
54.850982606809339
 31
0.0
  0
LINE
  5
785
  8
200
  6
AUSGEZOGEN
 10
904.64799636389398
 20
104.8509826068093
 30
0.0
 11
884.64799636389387
 21
74.850982606809339
 31
0.0
  0
LINE
  5
786
  8
200
  6
AUSGEZOGEN
 10
864.64799636389398
 20
74.850982606809339
 30
0.0
 11
884.64799636389387
 21
104.8509826068093
 31
0.0
  0
LINE
  5
787
  8
200
  6
AUSGEZOGEN
 10
864.64799636389398
 20
24.850982606809339
 30
0.0
 11
884.64799636389387
 21
54.850982606809339
 31
0.0
  0
LINE
  5
788
  8
200
  6
AUSGEZOGEN
 10
844.64799636389387
 20
404.8509826068094
 30
0.0
 11
864.64799636389398
 21
434.85098260680928
 31
0.0
  0
LINE
  5
789
  8
200
  6
AUSGEZOGEN
 10
844.64799636389387
 20
434.85098260680928
 30
0.0
 11
824.64799636389409
 21
404.8509826068094
 31
0.0
  0
LINE
  5
78A
  8
200
  6
AUSGEZOGEN
 10
844.64799636389387
 20
484.85098260680928
 30
0.0
 11
824.64799636389409
 21
454.8509826068094
 31
0.0
  0
LINE
  5
78B
  8
200
  6
AUSGEZOGEN
 10
844.64799636389387
 20
454.8509826068094
 30
0.0
 11
864.64799636389398
 21
484.85098260680928
 31
0.0
  0
LINE
  5
78C
  8
200
  6
AUSGEZOGEN
 10
844.64799636389387
 20
24.850982606809339
 30
0.0
 11
864.64799636389398
 21
54.850982606809339
 31
0.0
  0
LINE
  5
78D
  8
200
  6
AUSGEZOGEN
 10
864.64799636389398
 20
104.8509826068093
 30
0.0
 11
844.64799636389387
 21
74.850982606809339
 31
0.0
  0
LINE
  5
78E
  8
200
  6
AUSGEZOGEN
 10
824.64799636389409
 20
74.850982606809339
 30
0.0
 11
844.64799636389387
 21
104.8509826068093
 31
0.0
  0
LINE
  5
78F
  8
200
  6
AUSGEZOGEN
 10
824.64799636389409
 20
24.850982606809339
 30
0.0
 11
844.64799636389387
 21
54.850982606809339
 31
0.0
  0
LINE
  5
790
  8
200
  6
AUSGEZOGEN
 10
804.64799636389398
 20
404.8509826068094
 30
0.0
 11
824.64799636389409
 21
434.85098260680928
 31
0.0
  0
LINE
  5
791
  8
200
  6
AUSGEZOGEN
 10
804.64799636389398
 20
434.85098260680928
 30
0.0
 11
784.64799636389375
 21
404.8509826068094
 31
0.0
  0
LINE
  5
792
  8
200
  6
AUSGEZOGEN
 10
804.64799636389398
 20
484.85098260680928
 30
0.0
 11
784.64799636389375
 21
454.8509826068094
 31
0.0
  0
LINE
  5
793
  8
200
  6
AUSGEZOGEN
 10
804.64799636389398
 20
454.8509826068094
 30
0.0
 11
824.64799636389409
 21
484.85098260680928
 31
0.0
  0
LINE
  5
794
  8
200
  6
AUSGEZOGEN
 10
804.64799636389398
 20
24.850982606809339
 30
0.0
 11
824.64799636389409
 21
54.850982606809339
 31
0.0
  0
LINE
  5
795
  8
200
  6
AUSGEZOGEN
 10
824.64799636389409
 20
104.8509826068093
 30
0.0
 11
804.64799636389398
 21
74.850982606809339
 31
0.0
  0
LINE
  5
796
  8
200
  6
AUSGEZOGEN
 10
784.64799636389375
 20
74.850982606809339
 30
0.0
 11
804.64799636389398
 21
104.8509826068093
 31
0.0
  0
LINE
  5
797
  8
200
  6
AUSGEZOGEN
 10
784.64799636389375
 20
24.850982606809339
 30
0.0
 11
804.64799636389398
 21
54.850982606809339
 31
0.0
  0
LINE
  5
798
  8
200
  6
AUSGEZOGEN
 10
764.64799636389375
 20
404.8509826068094
 30
0.0
 11
784.64799636389375
 21
434.85098260680928
 31
0.0
  0
LINE
  5
799
  8
200
  6
AUSGEZOGEN
 10
764.64799636389375
 20
434.85098260680928
 30
0.0
 11
744.64799636389421
 21
404.8509826068094
 31
0.0
  0
LINE
  5
79A
  8
200
  6
AUSGEZOGEN
 10
764.64799636389375
 20
484.85098260680928
 30
0.0
 11
744.64799636389421
 21
454.8509826068094
 31
0.0
  0
LINE
  5
79B
  8
200
  6
AUSGEZOGEN
 10
764.64799636389375
 20
454.8509826068094
 30
0.0
 11
784.64799636389375
 21
484.85098260680928
 31
0.0
  0
LINE
  5
79C
  8
200
  6
AUSGEZOGEN
 10
764.64799636389375
 20
24.850982606809339
 30
0.0
 11
784.64799636389375
 21
54.850982606809339
 31
0.0
  0
LINE
  5
79D
  8
200
  6
AUSGEZOGEN
 10
784.64799636389375
 20
104.8509826068093
 30
0.0
 11
764.64799636389375
 21
74.850982606809339
 31
0.0
  0
LINE
  5
79E
  8
200
  6
AUSGEZOGEN
 10
744.64799636389421
 20
74.850982606809339
 30
0.0
 11
764.64799636389375
 21
104.8509826068093
 31
0.0
  0
LINE
  5
79F
  8
200
  6
AUSGEZOGEN
 10
744.64799636389421
 20
24.850982606809339
 30
0.0
 11
764.64799636389375
 21
54.850982606809339
 31
0.0
  0
LINE
  5
7A0
  8
200
  6
AUSGEZOGEN
 10
924.64799636389409
 20
534.85098260680934
 30
0.0
 11
904.64799636389398
 21
504.85098260680928
 31
0.0
  0
LINE
  5
7A1
  8
200
  6
AUSGEZOGEN
 10
924.64799636389409
 20
504.85098260680928
 30
0.0
 11
944.64799636389409
 21
534.85098260680934
 31
0.0
  0
LINE
  5
7A2
  8
200
  6
AUSGEZOGEN
 10
964.64799636389398
 20
534.85098260680934
 30
0.0
 11
944.64799636389409
 21
504.85098260680928
 31
0.0
  0
LINE
  5
7A3
  8
200
  6
AUSGEZOGEN
 10
964.64799636389398
 20
504.85098260680928
 30
0.0
 11
984.64799636389409
 21
534.85098260680934
 31
0.0
  0
LINE
  5
7A4
  8
200
  6
AUSGEZOGEN
 10
1004.647996363894
 20
534.85098260680934
 30
0.0
 11
984.64799636389409
 21
504.85098260680928
 31
0.0
  0
LINE
  5
7A5
  8
200
  6
AUSGEZOGEN
 10
884.64799636389387
 20
534.85098260680934
 30
0.0
 11
864.64799636389398
 21
504.85098260680928
 31
0.0
  0
LINE
  5
7A6
  8
200
  6
AUSGEZOGEN
 10
884.64799636389387
 20
504.85098260680928
 30
0.0
 11
904.64799636389398
 21
534.85098260680934
 31
0.0
  0
LINE
  5
7A7
  8
200
  6
AUSGEZOGEN
 10
844.64799636389387
 20
534.85098260680934
 30
0.0
 11
824.64799636389409
 21
504.85098260680928
 31
0.0
  0
LINE
  5
7A8
  8
200
  6
AUSGEZOGEN
 10
844.64799636389387
 20
504.85098260680928
 30
0.0
 11
864.64799636389398
 21
534.85098260680934
 31
0.0
  0
LINE
  5
7A9
  8
200
  6
AUSGEZOGEN
 10
804.64799636389398
 20
534.85098260680934
 30
0.0
 11
784.64799636389375
 21
504.85098260680928
 31
0.0
  0
LINE
  5
7AA
  8
200
  6
AUSGEZOGEN
 10
804.64799636389398
 20
504.85098260680928
 30
0.0
 11
824.64799636389409
 21
534.85098260680934
 31
0.0
  0
LINE
  5
7AB
  8
200
  6
AUSGEZOGEN
 10
764.64799636389375
 20
534.85098260680934
 30
0.0
 11
744.64799636389421
 21
504.85098260680928
 31
0.0
  0
LINE
  5
7AC
  8
200
  6
AUSGEZOGEN
 10
764.64799636389375
 20
504.85098260680928
 30
0.0
 11
784.64799636389375
 21
534.85098260680934
 31
0.0
  0
LINE
  5
7AD
  8
200
  6
AUSGEZOGEN
 10
924.64799636389409
 20
584.85098260680934
 30
0.0
 11
904.64799636389398
 21
554.85098260680934
 31
0.0
  0
LINE
  5
7AE
  8
200
  6
AUSGEZOGEN
 10
924.64799636389409
 20
554.85098260680934
 30
0.0
 11
944.64799636389409
 21
584.85098260680934
 31
0.0
  0
LINE
  5
7AF
  8
200
  6
AUSGEZOGEN
 10
964.64799636389398
 20
584.85098260680934
 30
0.0
 11
944.64799636389409
 21
554.85098260680934
 31
0.0
  0
LINE
  5
7B0
  8
200
  6
AUSGEZOGEN
 10
964.64799636389398
 20
554.85098260680934
 30
0.0
 11
984.64799636389409
 21
584.85098260680934
 31
0.0
  0
LINE
  5
7B1
  8
200
  6
AUSGEZOGEN
 10
1004.647996363894
 20
584.85098260680934
 30
0.0
 11
984.64799636389409
 21
554.85098260680934
 31
0.0
  0
LINE
  5
7B2
  8
200
  6
AUSGEZOGEN
 10
884.64799636389387
 20
584.85098260680934
 30
0.0
 11
864.64799636389398
 21
554.85098260680934
 31
0.0
  0
LINE
  5
7B3
  8
200
  6
AUSGEZOGEN
 10
884.64799636389387
 20
554.85098260680934
 30
0.0
 11
904.64799636389398
 21
584.85098260680934
 31
0.0
  0
LINE
  5
7B4
  8
200
  6
AUSGEZOGEN
 10
844.64799636389387
 20
584.85098260680934
 30
0.0
 11
824.64799636389409
 21
554.85098260680934
 31
0.0
  0
LINE
  5
7B5
  8
200
  6
AUSGEZOGEN
 10
844.64799636389387
 20
554.85098260680934
 30
0.0
 11
864.64799636389398
 21
584.85098260680934
 31
0.0
  0
LINE
  5
7B6
  8
200
  6
AUSGEZOGEN
 10
804.64799636389398
 20
584.85098260680934
 30
0.0
 11
784.64799636389375
 21
554.85098260680934
 31
0.0
  0
LINE
  5
7B7
  8
200
  6
AUSGEZOGEN
 10
804.64799636389398
 20
554.85098260680934
 30
0.0
 11
824.64799636389409
 21
584.85098260680934
 31
0.0
  0
LINE
  5
7B8
  8
200
  6
AUSGEZOGEN
 10
764.64799636389375
 20
584.85098260680934
 30
0.0
 11
744.64799636389421
 21
554.85098260680934
 31
0.0
  0
LINE
  5
7B9
  8
200
  6
AUSGEZOGEN
 10
764.64799636389375
 20
554.85098260680934
 30
0.0
 11
784.64799636389375
 21
584.85098260680934
 31
0.0
  0
LINE
  5
7BA
  8
200
  6
AUSGEZOGEN
 10
984.64799636389409
 20
124.8509826068093
 30
0.0
 11
1004.647996363894
 21
154.85098260680931
 31
0.0
  0
LINE
  5
7BB
  8
200
  6
AUSGEZOGEN
 10
984.64799636389409
 20
154.85098260680931
 30
0.0
 11
964.64799636389398
 21
124.8509826068093
 31
0.0
  0
LINE
  5
7BC
  8
200
  6
AUSGEZOGEN
 10
944.64799636389409
 20
124.8509826068093
 30
0.0
 11
964.64799636389398
 21
154.85098260680931
 31
0.0
  0
LINE
  5
7BD
  8
200
  6
AUSGEZOGEN
 10
944.64799636389409
 20
154.85098260680931
 30
0.0
 11
924.64799636389409
 21
124.8509826068093
 31
0.0
  0
LINE
  5
7BE
  8
200
  6
AUSGEZOGEN
 10
904.64799636389398
 20
124.8509826068093
 30
0.0
 11
924.64799636389409
 21
154.85098260680931
 31
0.0
  0
LINE
  5
7BF
  8
200
  6
AUSGEZOGEN
 10
904.64799636389398
 20
154.85098260680931
 30
0.0
 11
884.64799636389387
 21
124.8509826068093
 31
0.0
  0
LINE
  5
7C0
  8
200
  6
AUSGEZOGEN
 10
864.64799636389398
 20
124.8509826068093
 30
0.0
 11
884.64799636389387
 21
154.85098260680931
 31
0.0
  0
LINE
  5
7C1
  8
200
  6
AUSGEZOGEN
 10
864.64799636389398
 20
154.85098260680931
 30
0.0
 11
844.64799636389387
 21
124.8509826068093
 31
0.0
  0
LINE
  5
7C2
  8
200
  6
AUSGEZOGEN
 10
824.64799636389409
 20
124.8509826068093
 30
0.0
 11
844.64799636389387
 21
154.85098260680931
 31
0.0
  0
LINE
  5
7C3
  8
200
  6
AUSGEZOGEN
 10
824.64799636389409
 20
154.85098260680931
 30
0.0
 11
804.64799636389398
 21
124.8509826068093
 31
0.0
  0
LINE
  5
7C4
  8
200
  6
AUSGEZOGEN
 10
784.64799636389375
 20
124.8509826068093
 30
0.0
 11
804.64799636389398
 21
154.85098260680931
 31
0.0
  0
LINE
  5
7C5
  8
200
  6
AUSGEZOGEN
 10
784.64799636389375
 20
154.85098260680931
 30
0.0
 11
764.64799636389375
 21
124.8509826068093
 31
0.0
  0
LINE
  5
7C6
  8
200
  6
AUSGEZOGEN
 10
744.64799636389421
 20
124.8509826068093
 30
0.0
 11
764.64799636389375
 21
154.85098260680931
 31
0.0
  0
LINE
  5
7C7
  8
200
  6
AUSGEZOGEN
 10
984.64799636389409
 20
174.85098260680931
 30
0.0
 11
1004.647996363894
 21
204.8509826068094
 31
0.0
  0
LINE
  5
7C8
  8
200
  6
AUSGEZOGEN
 10
984.64799636389409
 20
204.8509826068094
 30
0.0
 11
964.64799636389398
 21
174.85098260680931
 31
0.0
  0
LINE
  5
7C9
  8
200
  6
AUSGEZOGEN
 10
944.64799636389409
 20
174.85098260680931
 30
0.0
 11
964.64799636389398
 21
204.8509826068094
 31
0.0
  0
LINE
  5
7CA
  8
200
  6
AUSGEZOGEN
 10
944.64799636389409
 20
204.8509826068094
 30
0.0
 11
924.64799636389409
 21
174.85098260680931
 31
0.0
  0
LINE
  5
7CB
  8
200
  6
AUSGEZOGEN
 10
904.64799636389398
 20
174.85098260680931
 30
0.0
 11
924.64799636389409
 21
204.8509826068094
 31
0.0
  0
LINE
  5
7CC
  8
200
  6
AUSGEZOGEN
 10
904.64799636389398
 20
204.8509826068094
 30
0.0
 11
884.64799636389387
 21
174.85098260680931
 31
0.0
  0
LINE
  5
7CD
  8
200
  6
AUSGEZOGEN
 10
864.64799636389398
 20
174.85098260680931
 30
0.0
 11
884.64799636389387
 21
204.8509826068094
 31
0.0
  0
LINE
  5
7CE
  8
200
  6
AUSGEZOGEN
 10
864.64799636389398
 20
204.8509826068094
 30
0.0
 11
844.64799636389387
 21
174.85098260680931
 31
0.0
  0
LINE
  5
7CF
  8
200
  6
AUSGEZOGEN
 10
824.64799636389409
 20
174.85098260680931
 30
0.0
 11
844.64799636389387
 21
204.8509826068094
 31
0.0
  0
LINE
  5
7D0
  8
200
  6
AUSGEZOGEN
 10
824.64799636389409
 20
204.8509826068094
 30
0.0
 11
804.64799636389398
 21
174.85098260680931
 31
0.0
  0
LINE
  5
7D1
  8
200
  6
AUSGEZOGEN
 10
784.64799636389375
 20
174.85098260680931
 30
0.0
 11
804.64799636389398
 21
204.8509826068094
 31
0.0
  0
LINE
  5
7D2
  8
200
  6
AUSGEZOGEN
 10
784.64799636389375
 20
204.8509826068094
 30
0.0
 11
764.64799636389375
 21
174.85098260680931
 31
0.0
  0
LINE
  5
7D3
  8
200
  6
AUSGEZOGEN
 10
744.64799636389421
 20
174.85098260680931
 30
0.0
 11
764.64799636389375
 21
204.8509826068094
 31
0.0
  0
LINE
  5
7D4
  8
200
  6
AUSGEZOGEN
 10
-662.35200363610568
 20
713.85098260680923
 30
0.0
 11
-232.4520036361061
 21
713.85098260680923
 31
0.0
  0
LINE
  5
7D5
  8
200
  6
AUSGEZOGEN
 10
-662.35200363610568
 20
733.85098260680923
 30
0.0
 11
-662.35200363610568
 21
699.35098260680923
 31
0.0
  0
LINE
  5
7D6
  8
200
  6
AUSGEZOGEN
 10
-232.4520036361061
 20
733.85098260680923
 30
0.0
 11
-662.35200363610568
 21
733.85098260680923
 31
0.0
  0
LINE
  5
7D7
  8
200
  6
AUSGEZOGEN
 10
-232.4520036361061
 20
699.35098260680923
 30
0.0
 11
-232.4520036361061
 21
733.85098260680923
 31
0.0
  0
LINE
  5
7D8
  8
200
  6
AUSGEZOGEN
 10
-662.35200363610568
 20
4.9509826068093332
 30
0.0
 11
-232.4520036361061
 21
4.9509826068093332
 31
0.0
  0
LINE
  5
7D9
  8
200
  6
AUSGEZOGEN
 10
-662.25200363610566
 20
669.85098260680923
 30
0.0
 11
-662.35200363610568
 21
4.9509826068093332
 31
0.0
  0
LINE
  5
7DA
  8
200
  6
AUSGEZOGEN
 10
-232.4520036361061
 20
669.85098260680923
 30
0.0
 11
-662.25200363610566
 21
669.85098260680923
 31
0.0
  0
LINE
  5
7DB
  8
200
  6
AUSGEZOGEN
 10
-662.35200363610568
 20
699.35098260680923
 30
0.0
 11
-662.25200363610566
 21
669.85098260680923
 31
0.0
  0
LINE
  5
7DC
  8
200
  6
AUSGEZOGEN
 10
-232.4520036361061
 20
699.35098260680923
 30
0.0
 11
-662.35200363610568
 21
699.35098260680923
 31
0.0
  0
LINE
  5
7DD
  8
200
  6
AUSGEZOGEN
 10
-232.4520036361061
 20
4.9509826068093332
 30
0.0
 11
-232.4520036361061
 21
699.35098260680923
 31
0.0
  0
LINE
  5
828
  8
200
  6
AUSGEZOGEN
 10
-202.35200363610571
 20
713.85098260680923
 30
0.0
 11
227.54799636389399
 21
713.85098260680923
 31
0.0
  0
LINE
  5
829
  8
200
  6
AUSGEZOGEN
 10
-202.35200363610571
 20
733.85098260680923
 30
0.0
 11
-202.35200363610571
 21
699.35098260680923
 31
0.0
  0
LINE
  5
82A
  8
200
  6
AUSGEZOGEN
 10
227.54799636389399
 20
733.85098260680923
 30
0.0
 11
-202.35200363610571
 21
733.85098260680923
 31
0.0
  0
LINE
  5
82B
  8
200
  6
AUSGEZOGEN
 10
227.54799636389399
 20
699.35098260680923
 30
0.0
 11
227.54799636389399
 21
733.85098260680923
 31
0.0
  0
LINE
  5
82C
  8
200
  6
AUSGEZOGEN
 10
-202.35200363610571
 20
4.9509826068093332
 30
0.0
 11
227.54799636389399
 21
4.9509826068093332
 31
0.0
  0
LINE
  5
82D
  8
200
  6
AUSGEZOGEN
 10
-202.25200363610571
 20
669.85098260680923
 30
0.0
 11
-202.35200363610571
 21
4.9509826068093332
 31
0.0
  0
LINE
  5
82E
  8
200
  6
AUSGEZOGEN
 10
227.54799636389399
 20
669.85098260680923
 30
0.0
 11
-202.25200363610571
 21
669.85098260680923
 31
0.0
  0
LINE
  5
82F
  8
200
  6
AUSGEZOGEN
 10
-202.35200363610571
 20
699.35098260680923
 30
0.0
 11
-202.25200363610571
 21
669.85098260680923
 31
0.0
  0
LINE
  5
830
  8
200
  6
AUSGEZOGEN
 10
227.54799636389399
 20
699.35098260680923
 30
0.0
 11
-202.35200363610571
 21
699.35098260680923
 31
0.0
  0
LINE
  5
831
  8
200
  6
AUSGEZOGEN
 10
227.54799636389399
 20
4.9509826068093332
 30
0.0
 11
227.54799636389399
 21
699.35098260680923
 31
0.0
  0
LINE
  5
886
  8
200
  6
AUSGEZOGEN
 10
1047.647996363894
 20
744.85098260680923
 30
0.0
 11
-677.35200363610602
 21
744.85098260680923
 31
0.0
  0
LINE
  5
8DA
  8
200
  6
AUSGEZOGEN
 10
984.64799636389409
 20
224.8509826068094
 30
0.0
 11
1004.647996363894
 21
254.85098260680951
 31
0.0
  0
LINE
  5
8DB
  8
200
  6
AUSGEZOGEN
 10
984.64799636389409
 20
254.85098260680951
 30
0.0
 11
964.64799636389398
 21
224.8509826068094
 31
0.0
  0
LINE
  5
8DC
  8
200
  6
AUSGEZOGEN
 10
944.64799636389409
 20
224.8509826068094
 30
0.0
 11
964.64799636389398
 21
254.85098260680951
 31
0.0
  0
LINE
  5
8DD
  8
200
  6
AUSGEZOGEN
 10
944.64799636389409
 20
254.85098260680951
 30
0.0
 11
924.64799636389409
 21
224.8509826068094
 31
0.0
  0
LINE
  5
8DE
  8
200
  6
AUSGEZOGEN
 10
904.64799636389398
 20
224.8509826068094
 30
0.0
 11
924.64799636389409
 21
254.85098260680951
 31
0.0
  0
LINE
  5
8DF
  8
200
  6
AUSGEZOGEN
 10
904.64799636389398
 20
254.85098260680951
 30
0.0
 11
884.64799636389387
 21
224.8509826068094
 31
0.0
  0
LINE
  5
8E0
  8
200
  6
AUSGEZOGEN
 10
864.64799636389398
 20
224.8509826068094
 30
0.0
 11
884.64799636389387
 21
254.85098260680951
 31
0.0
  0
LINE
  5
8E1
  8
200
  6
AUSGEZOGEN
 10
864.64799636389398
 20
254.85098260680951
 30
0.0
 11
844.64799636389387
 21
224.8509826068094
 31
0.0
  0
LINE
  5
8E2
  8
200
  6
AUSGEZOGEN
 10
824.64799636389409
 20
224.8509826068094
 30
0.0
 11
844.64799636389387
 21
254.85098260680951
 31
0.0
  0
LINE
  5
8E3
  8
200
  6
AUSGEZOGEN
 10
824.64799636389409
 20
254.85098260680951
 30
0.0
 11
804.64799636389398
 21
224.8509826068094
 31
0.0
  0
LINE
  5
8E4
  8
200
  6
AUSGEZOGEN
 10
784.64799636389375
 20
224.8509826068094
 30
0.0
 11
804.64799636389398
 21
254.85098260680951
 31
0.0
  0
LINE
  5
8E5
  8
200
  6
AUSGEZOGEN
 10
784.64799636389375
 20
254.85098260680951
 30
0.0
 11
764.64799636389375
 21
224.8509826068094
 31
0.0
  0
LINE
  5
8E6
  8
200
  6
AUSGEZOGEN
 10
744.64799636389421
 20
224.8509826068094
 30
0.0
 11
764.64799636389375
 21
254.85098260680951
 31
0.0
  0
LINE
  5
96D
  8
200
  6
AUSGEZOGEN
 10
1047.647996363894
 20
844.85098260680911
 30
0.0
 11
73.147996363892133
 21
844.85098260680911
 31
0.0
  0
INSERT
  5
980
  8
0
  6
CONTINUOUS
  2
A$C45BC7F34
 10
-637.35199583384917
 20
794.85098152945454
 30
0.0
  0
LINE
  5
981
  8
200
  6
AUSGEZOGEN
 10
-30.852003636107838
 20
844.85098260680911
 30
0.0
 11
-677.35200363610602
 21
844.85098260680911
 31
0.0
  0
LINE
  5
982
  8
200
  6
AUSGEZOGEN
 10
65.147996363892162
 20
844.85098260680911
 30
0.0
 11
-22.852003636107838
 21
844.85098260680911
 31
0.0
  0
LINE
  5
9D6
  8
200
  6
AUSGEZOGEN
 10
984.64799636389409
 20
274.85098260680951
 30
0.0
 11
1004.647996363894
 21
304.85098260680962
 31
0.0
  0
LINE
  5
9D7
  8
200
  6
AUSGEZOGEN
 10
984.64799636389409
 20
304.85098260680962
 30
0.0
 11
964.64799636389398
 21
274.85098260680951
 31
0.0
  0
LINE
  5
9D8
  8
200
  6
AUSGEZOGEN
 10
944.64799636389409
 20
274.85098260680951
 30
0.0
 11
964.64799636389398
 21
304.85098260680962
 31
0.0
  0
LINE
  5
9D9
  8
200
  6
AUSGEZOGEN
 10
944.64799636389409
 20
304.85098260680962
 30
0.0
 11
924.64799636389409
 21
274.85098260680951
 31
0.0
  0
LINE
  5
9DA
  8
200
  6
AUSGEZOGEN
 10
904.64799636389398
 20
274.85098260680951
 30
0.0
 11
924.64799636389409
 21
304.85098260680962
 31
0.0
  0
LINE
  5
9DB
  8
200
  6
AUSGEZOGEN
 10
904.64799636389398
 20
304.85098260680962
 30
0.0
 11
884.64799636389387
 21
274.85098260680951
 31
0.0
  0
LINE
  5
9DC
  8
200
  6
AUSGEZOGEN
 10
864.64799636389398
 20
274.85098260680951
 30
0.0
 11
884.64799636389387
 21
304.85098260680962
 31
0.0
  0
LINE
  5
9DD
  8
200
  6
AUSGEZOGEN
 10
864.64799636389398
 20
304.85098260680962
 30
0.0
 11
844.64799636389387
 21
274.85098260680951
 31
0.0
  0
LINE
  5
9DE
  8
200
  6
AUSGEZOGEN
 10
824.64799636389409
 20
274.85098260680951
 30
0.0
 11
844.64799636389387
 21
304.85098260680962
 31
0.0
  0
LINE
  5
9DF
  8
200
  6
AUSGEZOGEN
 10
824.64799636389409
 20
304.85098260680962
 30
0.0
 11
804.64799636389398
 21
274.85098260680951
 31
0.0
  0
LINE
  5
9E0
  8
200
  6
AUSGEZOGEN
 10
784.64799636389375
 20
274.85098260680951
 30
0.0
 11
804.64799636389398
 21
304.85098260680962
 31
0.0
  0
LINE
  5
9E1
  8
200
  6
AUSGEZOGEN
 10
784.64799636389375
 20
304.85098260680962
 30
0.0
 11
764.64799636389375
 21
274.85098260680951
 31
0.0
  0
LINE
  5
9E2
  8
200
  6
AUSGEZOGEN
 10
744.64799636389421
 20
274.85098260680951
 30
0.0
 11
764.64799636389375
 21
304.85098260680962
 31
0.0
  0
ENDSEC
  0
EOF
