  0
SECTION
  2
HEADER
  9
$ACADVER
  1
AC1009
  9
$INSBASE
 10
0.0
 20
700.0
 30
0.0
  9
$EXTMIN
 10
-627.13992255692574
 20
-75.139164012744686
 30
-0.000000000000013
  9
$EXTMAX
 10
3118.8868237551851
 20
675.00000349326751
 30
0.0000000000000023
  9
$LIMMIN
 10
0.0
 20
0.0
  9
$LIMMAX
 10
12.0
 20
9.0
  9
$ORTHOMODE
 70
     1
  9
$REGENMODE
 70
     1
  9
$FILLMODE
 70
     1
  9
$QTEXTMODE
 70
     0
  9
$MIRRTEXT
 70
     0
  9
$DRAGMODE
 70
     2
  9
$LTSCALE
 40
1.0
  9
$OSMODE
 70
    39
  9
$ATTMODE
 70
     1
  9
$TEXTSIZE
 40
30.0
  9
$TRACEWID
 40
0.05
  9
$TEXTSTYLE
  7
STANDARD
  9
$CLAYER
  8
0
  9
$CELTYPE
  6
CONTINUOUS
  9
$CECOLOR
 62
   256
  9
$DIMSCALE
 40
1.0
  9
$DIMASZ
 40
0.18
  9
$DIMEXO
 40
0.0625
  9
$DIMDLI
 40
0.38
  9
$DIMRND
 40
0.0
  9
$DIMDLE
 40
0.0
  9
$DIMEXE
 40
0.18
  9
$DIMTP
 40
0.0
  9
$DIMTM
 40
0.0
  9
$DIMTXT
 40
0.18
  9
$DIMCEN
 40
0.09
  9
$DIMTSZ
 40
0.0
  9
$DIMTOL
 70
     0
  9
$DIMLIM
 70
     0
  9
$DIMTIH
 70
     1
  9
$DIMTOH
 70
     1
  9
$DIMSE1
 70
     0
  9
$DIMSE2
 70
     0
  9
$DIMTAD
 70
     0
  9
$DIMZIN
 70
     0
  9
$DIMBLK
  1

  9
$DIMASO
 70
     1
  9
$DIMSHO
 70
     1
  9
$DIMPOST
  1

  9
$DIMAPOST
  1

  9
$DIMALT
 70
     0
  9
$DIMALTD
 70
     2
  9
$DIMALTF
 40
25.399999999999999
  9
$DIMLFAC
 40
1.0
  9
$DIMTOFL
 70
     0
  9
$DIMTVP
 40
0.0
  9
$DIMTIX
 70
     0
  9
$DIMSOXD
 70
     0
  9
$DIMSAH
 70
     0
  9
$DIMBLK1
  1

  9
$DIMBLK2
  1

  9
$DIMSTYLE
  2
STANDARD
  9
$DIMCLRD
 70
     0
  9
$DIMCLRE
 70
     0
  9
$DIMCLRT
 70
     0
  9
$DIMTFAC
 40
1.0
  9
$DIMGAP
 40
0.09
  9
$LUNITS
 70
     2
  9
$LUPREC
 70
     4
  9
$SKETCHINC
 40
0.1
  9
$FILLETRAD
 40
0.0
  9
$AUNITS
 70
     0
  9
$AUPREC
 70
     0
  9
$MENU
  1
.
  9
$ELEVATION
 40
0.0
  9
$PELEVATION
 40
0.0
  9
$THICKNESS
 40
0.0
  9
$LIMCHECK
 70
     0
  9
$BLIPMODE
 70
     0
  9
$CHAMFERA
 40
0.0
  9
$CHAMFERB
 40
0.0
  9
$SKPOLY
 70
     0
  9
$TDCREATE
 40
2457921.315416262
  9
$TDUPDATE
 40
2458387.4001806369
  9
$TDINDWG
 40
0.1167402662
  9
$TDUSRTIMER
 40
0.1167401273
  9
$USRTIMER
 70
     1
  9
$ANGBASE
 50
0.0
  9
$ANGDIR
 70
     0
  9
$PDMODE
 70
     0
  9
$PDSIZE
 40
0.0
  9
$PLINEWID
 40
0.0
  9
$COORDS
 70
     1
  9
$SPLFRAME
 70
     0
  9
$SPLINETYPE
 70
     6
  9
$SPLINESEGS
 70
     8
  9
$ATTDIA
 70
     1
  9
$ATTREQ
 70
     1
  9
$HANDLING
 70
     1
  9
$HANDSEED
  5
57E
  9
$SURFTAB1
 70
     6
  9
$SURFTAB2
 70
     6
  9
$SURFTYPE
 70
     6
  9
$SURFU
 70
     6
  9
$SURFV
 70
     6
  9
$UCSNAME
  2

  9
$UCSORG
 10
0.0
 20
0.0
 30
0.0
  9
$UCSXDIR
 10
1.0
 20
0.0
 30
0.0
  9
$UCSYDIR
 10
0.0
 20
1.0
 30
0.0
  9
$PUCSNAME
  2

  9
$PUCSORG
 10
0.0
 20
0.0
 30
0.0
  9
$PUCSXDIR
 10
1.0
 20
0.0
 30
0.0
  9
$PUCSYDIR
 10
0.0
 20
1.0
 30
0.0
  9
$USERI1
 70
     0
  9
$USERI2
 70
     0
  9
$USERI3
 70
     0
  9
$USERI4
 70
     0
  9
$USERI5
 70
     0
  9
$USERR1
 40
0.0
  9
$USERR2
 40
0.0
  9
$USERR3
 40
0.0
  9
$USERR4
 40
0.0
  9
$USERR5
 40
0.0
  9
$WORLDVIEW
 70
     1
  9
$SHADEDGE
 70
     3
  9
$SHADEDIF
 70
    70
  9
$TILEMODE
 70
     1
  9
$MAXACTVP
 70
    64
  9
$PLIMCHECK
 70
     0
  9
$PEXTMIN
 10
1.0000000000000000E+020
 20
1.0000000000000000E+020
 30
1.0000000000000000E+020
  9
$PEXTMAX
 10
-1.0000000000000000E+020
 20
-1.0000000000000000E+020
 30
-1.0000000000000000E+020
  9
$PLIMMIN
 10
0.0
 20
0.0
  9
$PLIMMAX
 10
12.0
 20
9.0
  9
$UNITMODE
 70
     0
  9
$VISRETAIN
 70
     1
  9
$PLINEGEN
 70
     0
  9
$PSLTSCALE
 70
     1
  0
ENDSEC
  0
SECTION
  2
TABLES
  0
TABLE
  2
VPORT
 70
     1
  0
VPORT
  2
*ACTIVE
 70
     0
 10
0.0
 20
0.0
 11
1.0
 21
1.0
 12
945.57217540960573
 22
748.09415316002151
 13
0.0
 23
0.0
 14
1.0
 24
1.0
 15
0.0
 25
0.0
 16
0.0
 26
0.0
 36
1.0
 17
0.0
 27
0.0
 37
0.0
 40
3618.395500955819
 41
2.2323232323232318
 42
50.0
 43
0.0
 44
0.0
 50
0.0
 51
0.0
 71
     0
 72
   100
 73
     1
 74
     1
 75
     0
 76
     0
 77
     0
 78
     0
  0
ENDTAB
  0
TABLE
  2
LTYPE
 70
     7
  0
LTYPE
  2
CONTINUOUS
 70
     0
  3
Solid line
 72
    65
 73
     0
 40
0.0
  0
LTYPE
  2
AUSGEZOGEN
 70
     0
  3
AUSGEZOGEN
 72
    65
 73
     0
 40
0.0
  0
LTYPE
  2
PUNKTIERT
 70
     0
  3
Gepunktet
 72
    65
 73
     2
 40
30.0
 49
0.0
 49
-30.0
  0
LTYPE
  2
STRICHLIERT
 70
     0
  3
Strichliert
 72
    65
 73
     2
 40
80.0
 49
50.0
 49
-30.0
  0
LTYPE
  2
STRICHPUNKT
 70
     0
  3
Strichpunktet
 72
    65
 73
     4
 40
160.0
 49
100.0
 49
-30.0
 49
0.0
 49
-30.0
  0
LTYPE
  2
STRICHPUNKTPUNKT
 70
     0
  3
Strichpunktpunktet
 72
    65
 73
     6
 40
190.0
 49
100.0
 49
-30.0
 49
0.0
 49
-30.0
 49
0.0
 49
-30.0
  0
ENDTAB
  0
TABLE
  2
LAYER
 70
     6
  0
LAYER
  2
0
 70
     0
 62
     1
  6
AUSGEZOGEN
  0
LAYER
  2
550
 70
     0
 62
     2
  6
AUSGEZOGEN
  0
LAYER
  2
510
 70
     0
 62
     2
  6
AUSGEZOGEN
  0
LAYER
  2
200
 70
     0
 62
     7
  6
AUSGEZOGEN
  0
LAYER
  2
400
 70
     0
 62
     4
  6
AUSGEZOGEN
  0
LAYER
  2
DEFPOINTS
 70
     0
 62
     7
  6
CONTINUOUS
  0
ENDTAB
  0
TABLE
  2
STYLE
 70
     3
  0
STYLE
  2
STANDARD
 70
     0
 40
0.0
 41
1.0
 50
0.0
 71
     0
 42
30.0
  3
TXT.SHX
  4

  0
STYLE
  2
ANNOTATIVE
 70
     0
 40
0.0
 41
1.0
 50
0.0
 71
     0
 42
0.2
  3
txt
  4

  0
ENDTAB
  0
TABLE
  2
VIEW
 70
     0
  0
ENDTAB
  0
TABLE
  2
UCS
 70
     0
  0
ENDTAB
  0
TABLE
  2
APPID
 70
     6
  0
APPID
  2
ACAD
 70
     0
  0
APPID
  2
ACADANNOTATIVE
 70
     0
  0
APPID
  2
ACAD_EXEMPT_FROM_CAD_STANDARDS
 70
     0
  0
APPID
  2
ACAD_NAV_VCDISPLAY
 70
     0
  0
APPID
  2
ACAD_PSEXT
 70
     0
  0
APPID
  2
ACAD_MLEADERVER
 70
     0
  0
ENDTAB
  0
TABLE
  2
DIMSTYLE
 70
     3
  0
DIMSTYLE
  2
STANDARD
 70
     0
  3

  4

  5

  6

  7

 40
1.0
 41
0.18
 42
0.0625
 43
0.38
 44
0.18
 45
0.0
 46
0.0
 47
0.0
 48
0.0
140
0.18
141
0.09
142
0.0
143
25.399999999999999
144
1.0
145
0.0
146
1.0
147
0.09
 71
     0
 72
     0
 73
     1
 74
     1
 75
     0
 76
     0
 77
     0
 78
     0
170
     0
171
     2
172
     0
173
     0
174
     0
175
     0
176
     0
177
     0
178
     0
  0
DIMSTYLE
  2
ANNOTATIVE
 70
     0
  3

  4

  5

  6

  7

 40
1.0
 41
0.18
 42
0.0625
 43
0.38
 44
0.18
 45
0.0
 46
0.0
 47
0.0
 48
0.0
140
0.18
141
0.09
142
0.0
143
25.399999999999999
144
1.0
145
0.0
146
1.0
147
0.09
 71
     0
 72
     0
 73
     1
 74
     1
 75
     0
 76
     0
 77
     0
 78
     0
170
     0
171
     2
172
     0
173
     0
174
     0
175
     0
176
     0
177
     0
178
     0
  0
ENDTAB
  0
ENDSEC
  0
SECTION
  2
BLOCKS
  0
BLOCK
  8
0
  2
$MODEL_SPACE
 70
     0
 10
0.0
 20
0.0
 30
0.0
  3
$MODEL_SPACE
  1

  0
ENDBLK
  5
71
  8
0
  0
BLOCK
 67
     1
  8
0
  2
$PAPER_SPACE
 70
     0
 10
0.0
 20
0.0
 30
0.0
  3
$PAPER_SPACE
  1

  0
ENDBLK
  5
6D
 67
     1
  8
0
  0
BLOCK
  8
0
  2
*D0
 70
     1
 10
0.0
 20
0.0
 30
0.0
  3
*D0
  1

  0
LINE
  5
204
  8
0
  6
CONTINUOUS
 62
     0
 10
-152.0625
 20
-25.0
 30
0.0
 11
-249.77439065432901
 21
-24.999999999999972
 31
0.0
  0
LINE
  5
205
  8
0
  6
CONTINUOUS
 62
     0
 10
-152.0625
 20
675.0
 30
0.0
 11
-249.77439065432881
 21
675.0
 31
0.0
  0
LINE
  5
206
  8
0
  6
CONTINUOUS
 62
     0
 10
-249.59439065432889
 20
-24.819999999999968
 30
0.0
 11
-249.59439065432881
 21
324.82000000000011
 31
0.0
  0
LINE
  5
207
  8
0
  6
CONTINUOUS
 62
     0
 10
-249.59439065432881
 20
674.82000000000005
 30
0.0
 11
-249.59439065432881
 21
325.18000000000012
 31
0.0
  0
SOLID
  5
208
  8
0
  6
CONTINUOUS
 62
     0
 10
-249.62439065432889
 20
-24.819999999999968
 30
0.0
 11
-249.564390654329
 21
-24.819999999999968
 31
0.0
 12
-249.59439065432889
 22
-24.999999999999972
 32
0.0
 13
-249.59439065432889
 23
-24.999999999999972
 33
0.0
  0
SOLID
  5
209
  8
0
  6
CONTINUOUS
 62
     0
 10
-249.62439065432881
 20
674.82000000000005
 30
0.0
 11
-249.5643906543288
 21
674.82000000000005
 31
0.0
 12
-249.59439065432881
 22
675.0
 32
0.0
 13
-249.59439065432881
 23
675.0
 33
0.0
  0
INSERT
  5
20A
  8
0
  6
CONTINUOUS
  2
*U6
 10
0.0
 20
0.0
 30
0.0
  0
POINT
  5
20B
  8
DEFPOINTS
  6
CONTINUOUS
 62
     0
 10
-152.0
 20
-25.0
 30
0.0
  0
POINT
  5
20C
  8
DEFPOINTS
  6
CONTINUOUS
 62
     0
 10
-152.0
 20
675.0
 30
0.0
  0
POINT
  5
20D
  8
DEFPOINTS
  6
CONTINUOUS
 62
     0
 10
-249.59439065432881
 20
675.0
 30
0.0
  0
ENDBLK
  5
203
  8
0
  0
BLOCK
  8
0
  2
*D1
 70
     1
 10
0.0
 20
0.0
 30
0.0
  3
*D1
  1

  0
LINE
  5
212
  8
0
  6
CONTINUOUS
 62
     0
 10
-152.0
 20
675.0625
 30
0.0
 11
-152.0
 21
732.11988370494657
 31
0.0
  0
LINE
  5
213
  8
0
  6
CONTINUOUS
 62
     0
 10
1098.0
 20
675.0625
 30
0.0
 11
1098.0
 21
732.11988370494657
 31
0.0
  0
LINE
  5
214
  8
0
  6
CONTINUOUS
 62
     0
 10
-151.81999999999999
 20
731.93988370494662
 30
0.0
 11
472.29499999999979
 21
731.93988370494662
 31
0.0
  0
LINE
  5
215
  8
0
  6
CONTINUOUS
 62
     0
 10
1097.8199999999999
 20
731.93988370494662
 30
0.0
 11
473.70499999999993
 21
731.93988370494662
 31
0.0
  0
SOLID
  5
216
  8
0
  6
CONTINUOUS
 62
     0
 10
-151.81999999999999
 20
731.9698837049466
 30
0.0
 11
-151.81999999999999
 21
731.90988370494665
 31
0.0
 12
-152.0
 22
731.93988370494662
 32
0.0
 13
-152.0
 23
731.93988370494662
 33
0.0
  0
SOLID
  5
217
  8
0
  6
CONTINUOUS
 62
     0
 10
1097.8199999999999
 20
731.9698837049466
 30
0.0
 11
1097.8199999999999
 21
731.90988370494665
 31
0.0
 12
1098.0
 22
731.93988370494662
 32
0.0
 13
1098.0
 23
731.93988370494662
 33
0.0
  0
INSERT
  5
218
  8
0
  6
CONTINUOUS
  2
*U7
 10
0.0
 20
0.0
 30
0.0
  0
POINT
  5
219
  8
DEFPOINTS
  6
CONTINUOUS
 62
     0
 10
-152.0
 20
675.0
 30
0.0
  0
POINT
  5
21A
  8
DEFPOINTS
  6
CONTINUOUS
 62
     0
 10
1098.0
 20
675.0
 30
0.0
  0
POINT
  5
21B
  8
DEFPOINTS
  6
CONTINUOUS
 62
     0
 10
1098.0
 20
731.93988370494662
 30
0.0
  0
ENDBLK
  5
211
  8
0
  0
BLOCK
  8
0
  2
A$C4D772E8E
 70
     0
 10
0.0
 20
0.0
 30
0.0
  3
A$C4D772E8E
  1

  0
LINE
  5
42B
  8
200
  6
AUSGEZOGEN
 10
126.99999986363579
 20
50.000000607569739
 30
0.0
 11
214.999999863634
 21
50.000000607573376
 31
0.0
  0
LINE
  5
42C
  8
200
  6
AUSGEZOGEN
 10
-0.0000001363641502
 20
39.000000607571558
 30
0.0
 11
341.999999863634
 21
39.000000607571558
 31
0.0
  0
LINE
  5
42D
  8
200
  6
AUSGEZOGEN
 10
-0.0000001363641502
 20
0.0000006075679266
 30
0.0
 11
-0.0000001363641502
 21
39.000000607571558
 31
0.0
  0
LINE
  5
42E
  8
200
  6
AUSGEZOGEN
 10
204.999999863634
 20
63.046969165868163
 30
0.0
 11
136.999999863634
 21
63.046969165868163
 31
0.0
  0
LINE
  5
42F
  8
200
  6
AUSGEZOGEN
 10
207.999999863634
 20
71.046969165868163
 30
0.0
 11
133.999999863634
 21
71.046969165868163
 31
0.0
  0
ARC
  5
430
  8
200
  6
AUSGEZOGEN
 10
133.999999863634
 20
56.04696916586817
 30
0.0
 40
15.0
 50
90.0
 51
180.0
  0
ARC
  5
431
  8
200
  6
AUSGEZOGEN
 10
136.999999863634
 20
53.046969165868163
 30
0.0
 40
10.0
 50
90.0
 51
180.0
  0
LINE
  5
432
  8
200
  6
AUSGEZOGEN
 10
118.999999863634
 20
39.000000607570648
 30
0.0
 11
118.999999863634
 21
56.04696916586817
 31
0.0
  0
LINE
  5
433
  8
200
  6
AUSGEZOGEN
 10
126.999999863634
 20
39.000000607570648
 30
0.0
 11
126.999999863634
 21
53.046969165868163
 31
0.0
  0
ARC
  5
434
  8
200
  6
AUSGEZOGEN
 10
207.999999863634
 20
56.04696916586817
 30
0.0
 40
15.0
 50
0.0
 51
90.0
  0
ARC
  5
435
  8
200
  6
AUSGEZOGEN
 10
204.999999863634
 20
53.046969165868163
 30
0.0
 40
10.0
 50
0.0
 51
90.0
  0
LINE
  5
436
  8
200
  6
AUSGEZOGEN
 10
214.999999863634
 20
39.000000607570648
 30
0.0
 11
214.999999863634
 21
53.046969165868163
 31
0.0
  0
LINE
  5
437
  8
200
  6
AUSGEZOGEN
 10
222.999999863634
 20
39.000000607570648
 30
0.0
 11
222.999999863634
 21
56.04696916586817
 31
0.0
  0
LINE
  5
438
  8
200
  6
AUSGEZOGEN
 10
341.999999863634
 20
39.000000607571558
 30
0.0
 11
341.999999863634
 21
0.0000006075642887
 31
0.0
  0
ENDBLK
  5
439
  8
0
  0
BLOCK
  8
0
  2
A$C2EFF2294
 70
     0
 10
0.0
 20
0.0
 30
0.0
  3
A$C2EFF2294
  1

  0
CIRCLE
  5
44C
  8
200
  6
AUSGEZOGEN
 10
7.0000119171891111
 20
560.50000048628124
 30
0.0
 40
3.5
  0
CIRCLE
  5
44D
  8
200
  6
AUSGEZOGEN
 10
7.0000119171891111
 20
505.50000048628118
 30
0.0
 40
3.5
  0
CIRCLE
  5
44E
  8
200
  6
AUSGEZOGEN
 10
366.00001191718729
 20
505.50000048628118
 30
0.0
 40
3.5
  0
CIRCLE
  5
44F
  8
200
  6
AUSGEZOGEN
 10
366.00001191718729
 20
560.50000048628124
 30
0.0
 40
3.5
  0
POLYLINE
  5
450
  8
200
  6
AUSGEZOGEN
 66
     1
 10
0.0
 20
0.0
 30
0.0
 70
     1
  0
VERTEX
  5
55E
  8
200
  6
AUSGEZOGEN
 10
15.500011917189109
 20
0.0000004862813512
 30
0.0
  0
VERTEX
  5
55F
  8
200
  6
AUSGEZOGEN
 10
357.50001191718729
 20
0.0000004862813512
 30
0.0
  0
VERTEX
  5
560
  8
200
  6
AUSGEZOGEN
 10
357.50001191718729
 20
212.00000048628129
 30
0.0
  0
VERTEX
  5
561
  8
200
  6
AUSGEZOGEN
 10
15.500011917189109
 20
212.00000048628129
 30
0.0
  0
SEQEND
  5
562
  8
200
  6
AUSGEZOGEN
  0
POLYLINE
  5
451
  8
200
  6
AUSGEZOGEN
 66
     1
 10
0.0
 20
0.0
 30
0.0
  0
VERTEX
  5
563
  8
200
  6
AUSGEZOGEN
 10
18.000011917189109
 20
212.00000048628129
 30
0.0
  0
VERTEX
  5
564
  8
200
  6
AUSGEZOGEN
 10
18.000011917189109
 20
557.50000048628124
 30
0.0
  0
VERTEX
  5
565
  8
200
  6
AUSGEZOGEN
 10
355.00001191718729
 20
557.50000048628124
 30
0.0
  0
VERTEX
  5
566
  8
200
  6
AUSGEZOGEN
 10
355.00001191718729
 20
212.00000048628129
 30
0.0
  0
SEQEND
  5
567
  8
200
  6
AUSGEZOGEN
  0
CIRCLE
  5
452
  8
200
  6
AUSGEZOGEN
 10
138.50001191717999
 20
50.000000486279532
 30
0.0
 40
4.0
  0
CIRCLE
  5
453
  8
200
  6
AUSGEZOGEN
 10
234.50001191717999
 20
50.000000486281337
 30
0.0
 40
4.0
  0
POLYLINE
  5
454
  8
200
  6
AUSGEZOGEN
 66
     1
 10
0.0
 20
0.0
 30
0.0
  0
VERTEX
  5
568
  8
200
  6
AUSGEZOGEN
 10
138.50001191717999
 20
46.000000486279532
 30
0.0
  0
VERTEX
  5
569
  8
200
  6
AUSGEZOGEN
 10
234.50001191717999
 20
46.000000486281337
 30
0.0
  0
SEQEND
  5
56A
  8
200
  6
AUSGEZOGEN
  0
POLYLINE
  5
455
  8
200
  6
AUSGEZOGEN
 66
     1
 10
0.0
 20
0.0
 30
0.0
  0
VERTEX
  5
56B
  8
200
  6
AUSGEZOGEN
 10
234.50001191717999
 20
54.000000486281337
 30
0.0
  0
VERTEX
  5
56C
  8
200
  6
AUSGEZOGEN
 10
138.50001191717999
 20
54.000000486279532
 30
0.0
  0
SEQEND
  5
56D
  8
200
  6
AUSGEZOGEN
  0
LINE
  5
456
  8
200
  6
AUSGEZOGEN
 10
0.0000119171891129
 20
562.50000048628124
 30
0.0
 11
0.0000119171891129
 21
503.50000048628129
 31
0.0
  0
ARC
  5
457
  8
200
  6
AUSGEZOGEN
 10
3.0000119171891111
 20
562.50000048628124
 30
0.0
 40
3.0
 50
90.0
 51
180.0
  0
ARC
  5
458
  8
200
  6
AUSGEZOGEN
 10
3.0000119171891111
 20
503.50000048628129
 30
0.0
 40
3.0
 50
180.0
 51
270.0
  0
LINE
  5
459
  8
200
  6
AUSGEZOGEN
 10
17.000011917189109
 20
565.50000048628124
 30
0.0
 11
17.000011917189109
 21
503.50000048628129
 31
0.0
  0
ARC
  5
45A
  8
200
  6
AUSGEZOGEN
 10
14.000011917189109
 20
503.50000048628129
 30
0.0
 40
3.0
 50
270.0
 51
0.0
  0
LINE
  5
45B
  8
200
  6
AUSGEZOGEN
 10
14.000011917189109
 20
565.50000048628124
 30
0.0
 11
14.000011917189109
 21
521.50000048628135
 31
0.0
  0
LINE
  5
45C
  8
200
  6
AUSGEZOGEN
 10
3.0000119171891111
 20
565.50000048628124
 30
0.0
 11
17.000011917189109
 21
565.50000048628124
 31
0.0
  0
LINE
  5
45D
  8
200
  6
AUSGEZOGEN
 10
3.0000119171891111
 20
500.50000048628141
 30
0.0
 11
14.000011917189109
 21
500.50000048628141
 31
0.0
  0
LINE
  5
45E
  8
200
  6
AUSGEZOGEN
 10
373.00001191718741
 20
562.50000048628124
 30
0.0
 11
373.00001191718741
 21
503.50000048628129
 31
0.0
  0
ARC
  5
45F
  8
200
  6
AUSGEZOGEN
 10
370.00001191718729
 20
562.50000048628124
 30
0.0
 40
3.0
 50
0.0
 51
90.0
  0
ARC
  5
460
  8
200
  6
AUSGEZOGEN
 10
370.00001191718729
 20
503.50000048628129
 30
0.0
 40
3.0
 50
270.0
 51
0.0
  0
LINE
  5
461
  8
200
  6
AUSGEZOGEN
 10
356.00001191718741
 20
565.50000048628124
 30
0.0
 11
356.00001191718741
 21
503.50000048628129
 31
0.0
  0
ARC
  5
462
  8
200
  6
AUSGEZOGEN
 10
359.00001191718741
 20
503.50000048628129
 30
0.0
 40
3.0
 50
180.0
 51
270.0
  0
LINE
  5
463
  8
200
  6
AUSGEZOGEN
 10
359.00001191718741
 20
565.50000048628124
 30
0.0
 11
359.00001191718741
 21
521.50000048628135
 31
0.0
  0
LINE
  5
464
  8
200
  6
AUSGEZOGEN
 10
370.00001191718729
 20
565.50000048628124
 30
0.0
 11
356.00001191718741
 21
565.50000048628124
 31
0.0
  0
LINE
  5
465
  8
200
  6
AUSGEZOGEN
 10
370.00001191718729
 20
500.50000048628141
 30
0.0
 11
359.00001191718741
 21
500.50000048628141
 31
0.0
  0
LINE
  5
466
  8
200
  6
AUSGEZOGEN
 10
359.00001191718741
 20
521.50000048628135
 30
0.0
 11
356.00001191718741
 21
521.50000048628135
 31
0.0
  0
LINE
  5
467
  8
200
  6
AUSGEZOGEN
 10
17.000011917189109
 20
521.50000048628135
 30
0.0
 11
14.000011917189109
 21
521.50000048628135
 31
0.0
  0
ENDBLK
  5
468
  8
0
  0
BLOCK
  8
0
  2
A$C56ED5561
 70
     0
 10
0.0
 20
0.0
 30
0.0
  3
A$C56ED5561
  1

  0
CIRCLE
  5
494
  8
200
  6
AUSGEZOGEN
 10
6.9999881285584689
 20
560.4999981752062
 30
0.0
 40
3.5
  0
CIRCLE
  5
495
  8
200
  6
AUSGEZOGEN
 10
6.9999881285584689
 20
505.4999981752062
 30
0.0
 40
3.5
  0
CIRCLE
  5
496
  8
200
  6
AUSGEZOGEN
 10
1340.9999881285571
 20
505.4999981752062
 30
0.0
 40
3.5
  0
CIRCLE
  5
497
  8
200
  6
AUSGEZOGEN
 10
1340.9999881285571
 20
560.4999981752062
 30
0.0
 40
3.5
  0
POLYLINE
  5
498
  8
200
  6
AUSGEZOGEN
 66
     1
 10
0.0
 20
0.0
 30
0.0
 70
     1
  0
VERTEX
  5
56E
  8
200
  6
AUSGEZOGEN
 10
15.499988128558471
 20
-0.0000018247937987
 30
0.0
  0
VERTEX
  5
56F
  8
200
  6
AUSGEZOGEN
 10
1332.4999881285571
 20
-0.0000018247937987
 30
0.0
  0
VERTEX
  5
570
  8
200
  6
AUSGEZOGEN
 10
1332.4999881285571
 20
211.9999981752062
 30
0.0
  0
VERTEX
  5
571
  8
200
  6
AUSGEZOGEN
 10
15.499988128558471
 20
211.9999981752062
 30
0.0
  0
SEQEND
  5
572
  8
200
  6
AUSGEZOGEN
  0
POLYLINE
  5
499
  8
200
  6
AUSGEZOGEN
 66
     1
 10
0.0
 20
0.0
 30
0.0
  0
VERTEX
  5
573
  8
200
  6
AUSGEZOGEN
 10
17.999988128558471
 20
211.9999981752062
 30
0.0
  0
VERTEX
  5
574
  8
200
  6
AUSGEZOGEN
 10
17.999988128558471
 20
557.49999817520609
 30
0.0
  0
VERTEX
  5
575
  8
200
  6
AUSGEZOGEN
 10
1329.999988128556
 20
557.49999817520609
 30
0.0
  0
VERTEX
  5
576
  8
200
  6
AUSGEZOGEN
 10
1329.999988128556
 20
211.9999981752062
 30
0.0
  0
SEQEND
  5
577
  8
200
  6
AUSGEZOGEN
  0
CIRCLE
  5
49A
  8
200
  6
AUSGEZOGEN
 10
625.99998812854938
 20
49.999998175204382
 30
0.0
 40
4.0
  0
CIRCLE
  5
49B
  8
200
  6
AUSGEZOGEN
 10
721.99998812854915
 20
49.999998175206201
 30
0.0
 40
4.0
  0
POLYLINE
  5
49C
  8
200
  6
AUSGEZOGEN
 66
     1
 10
0.0
 20
0.0
 30
0.0
  0
VERTEX
  5
578
  8
200
  6
AUSGEZOGEN
 10
625.99998812854938
 20
45.999998175204382
 30
0.0
  0
VERTEX
  5
579
  8
200
  6
AUSGEZOGEN
 10
721.99998812854915
 20
45.999998175206201
 30
0.0
  0
SEQEND
  5
57A
  8
200
  6
AUSGEZOGEN
  0
POLYLINE
  5
49D
  8
200
  6
AUSGEZOGEN
 66
     1
 10
0.0
 20
0.0
 30
0.0
  0
VERTEX
  5
57B
  8
200
  6
AUSGEZOGEN
 10
721.99998812854915
 20
53.999998175206201
 30
0.0
  0
VERTEX
  5
57C
  8
200
  6
AUSGEZOGEN
 10
625.99998812854938
 20
53.999998175204382
 30
0.0
  0
SEQEND
  5
57D
  8
200
  6
AUSGEZOGEN
  0
LINE
  5
49E
  8
200
  6
AUSGEZOGEN
 10
-0.0000118714415294
 20
562.49999817520609
 30
0.0
 11
-0.0000118714415294
 21
503.49999817520609
 31
0.0
  0
ARC
  5
49F
  8
200
  6
AUSGEZOGEN
 10
2.9999881285584702
 20
562.49999817520609
 30
0.0
 40
3.0
 50
90.0
 51
180.0
  0
ARC
  5
4A0
  8
200
  6
AUSGEZOGEN
 10
2.9999881285584702
 20
503.49999817520609
 30
0.0
 40
3.0
 50
180.0
 51
270.0
  0
LINE
  5
4A1
  8
200
  6
AUSGEZOGEN
 10
16.999988128558471
 20
565.49999817520609
 30
0.0
 11
16.999988128558471
 21
503.49999817520609
 31
0.0
  0
ARC
  5
4A2
  8
200
  6
AUSGEZOGEN
 10
13.999988128558471
 20
503.49999817520609
 30
0.0
 40
3.0
 50
270.0
 51
0.0
  0
LINE
  5
4A3
  8
200
  6
AUSGEZOGEN
 10
13.999988128558471
 20
565.49999817520609
 30
0.0
 11
13.999988128558471
 21
521.4999981752062
 31
0.0
  0
LINE
  5
4A4
  8
200
  6
AUSGEZOGEN
 10
2.9999881285584702
 20
565.49999817520609
 30
0.0
 11
16.999988128558471
 21
565.49999817520609
 31
0.0
  0
LINE
  5
4A5
  8
200
  6
AUSGEZOGEN
 10
2.9999881285584702
 20
500.4999981752062
 30
0.0
 11
13.999988128558471
 21
500.4999981752062
 31
0.0
  0
LINE
  5
4A6
  8
200
  6
AUSGEZOGEN
 10
1347.999988128556
 20
562.49999817520609
 30
0.0
 11
1347.999988128556
 21
503.49999817520609
 31
0.0
  0
ARC
  5
4A7
  8
200
  6
AUSGEZOGEN
 10
1344.9999881285571
 20
562.49999817520609
 30
0.0
 40
3.0
 50
0.0
 51
90.0
  0
ARC
  5
4A8
  8
200
  6
AUSGEZOGEN
 10
1344.9999881285571
 20
503.49999817520609
 30
0.0
 40
3.0
 50
270.0
 51
0.0
  0
LINE
  5
4A9
  8
200
  6
AUSGEZOGEN
 10
1330.9999881285571
 20
565.49999817520609
 30
0.0
 11
1330.9999881285571
 21
503.49999817520609
 31
0.0
  0
ARC
  5
4AA
  8
200
  6
AUSGEZOGEN
 10
1333.999988128556
 20
503.49999817520609
 30
0.0
 40
3.0
 50
180.0
 51
270.0
  0
LINE
  5
4AB
  8
200
  6
AUSGEZOGEN
 10
1333.999988128556
 20
565.49999817520609
 30
0.0
 11
1333.999988128556
 21
521.4999981752062
 31
0.0
  0
LINE
  5
4AC
  8
200
  6
AUSGEZOGEN
 10
1344.9999881285571
 20
565.49999817520609
 30
0.0
 11
1330.9999881285571
 21
565.49999817520609
 31
0.0
  0
LINE
  5
4AD
  8
200
  6
AUSGEZOGEN
 10
1344.9999881285571
 20
500.4999981752062
 30
0.0
 11
1333.999988128556
 21
500.4999981752062
 31
0.0
  0
LINE
  5
4AE
  8
200
  6
AUSGEZOGEN
 10
1333.999988128556
 20
521.4999981752062
 30
0.0
 11
1330.9999881285571
 21
521.4999981752062
 31
0.0
  0
LINE
  5
4AF
  8
200
  6
AUSGEZOGEN
 10
16.999988128558471
 20
521.4999981752062
 30
0.0
 11
13.999988128558471
 21
521.4999981752062
 31
0.0
  0
ENDBLK
  5
4B3
  8
0
  0
BLOCK
  8
0
  2
*U6
 70
     1
 10
0.0
 20
0.0
 30
0.0
  3
*U6
  1

  0
TEXT
  5
557
  8
0
  6
CONTINUOUS
 62
     0
 10
-250.13439065432891
 20
324.91000000000003
 30
0.0
 40
0.18
  1
700.0000
  0
ENDBLK
  5
559
  8
0
  0
BLOCK
  8
0
  2
*U7
 70
     1
 10
0.0
 20
0.0
 30
0.0
  3
*U7
  1

  0
TEXT
  5
55B
  8
0
  6
CONTINUOUS
 62
     0
 10
472.38499999999988
 20
731.84988370494671
 30
0.0
 40
0.18
  1
1250.0000
  0
ENDBLK
  5
55D
  8
0
  0
ENDSEC
  0
SECTION
  2
ENTITIES
  0
LINE
  5
7E
  8
400
  6
AUSGEZOGEN
 10
932.0
 20
560.0
 30
0.0
 11
1399.0
 21
546.49999999999977
 31
0.0
  0
LINE
  5
7F
  8
400
  6
AUSGEZOGEN
 10
3118.6300000000001
 20
546.49999999999977
 30
0.0
 11
1399.0
 21
546.49999999999977
 31
0.0
  0
LINE
  5
80
  8
400
  6
AUSGEZOGEN
 10
932.0
 20
485.0
 30
0.0
 11
932.0
 21
560.0
 31
0.0
  0
LINE
  5
81
  8
400
  6
AUSGEZOGEN
 10
932.0
 20
635.0
 30
0.0
 11
932.0
 21
560.0
 31
0.0
  0
LINE
  5
82
  8
400
  6
AUSGEZOGEN
 10
857.0
 20
560.0
 30
0.0
 11
932.0
 21
560.0
 31
0.0
  0
LINE
  5
83
  8
400
  6
AUSGEZOGEN
 10
1007.0
 20
560.0
 30
0.0
 11
932.0
 21
560.0
 31
0.0
  0
CIRCLE
  5
84
  8
400
  6
AUSGEZOGEN
 10
932.0
 20
560.0
 30
0.0
 40
50.0
  0
LINE
  5
85
  8
200
  6
AUSGEZOGEN
 10
751.10000000000002
 20
-5.0
 30
0.0
 11
751.10000000000002
 21
36.0
 31
0.0
  0
LINE
  5
86
  8
200
  6
AUSGEZOGEN
 10
1085.0
 20
-5.0
 30
0.0
 11
751.10000000000002
 21
-5.0
 31
0.0
  0
LINE
  5
87
  8
200
  6
AUSGEZOGEN
 10
751.0
 20
56.0
 30
0.0
 11
751.0
 21
36.0
 31
0.0
  0
LINE
  5
88
  8
200
  6
AUSGEZOGEN
 10
1085.0
 20
-5.0
 30
0.0
 11
1085.0
 21
56.0
 31
0.0
  0
LINE
  5
89
  8
200
  6
AUSGEZOGEN
 10
751.0
 20
36.0
 30
0.0
 11
1085.0
 21
36.0
 31
0.0
  0
LINE
  5
92
  8
200
  6
AUSGEZOGEN
 10
-627.0
 20
675.0
 30
0.0
 11
-627.0
 21
-25.0
 31
0.0
  0
LINE
  5
93
  8
200
  6
AUSGEZOGEN
 10
1098.0
 20
675.0
 30
0.0
 11
-627.0
 21
675.0
 31
0.0
  0
LINE
  5
94
  8
200
  6
AUSGEZOGEN
 10
1098.0
 20
-25.0
 30
0.0
 11
1098.0
 21
675.0
 31
0.0
  0
LINE
  5
98
  8
200
  6
AUSGEZOGEN
 10
307.0
 20
56.0
 30
0.0
 11
307.0
 21
-5.0
 31
0.0
  0
LINE
  5
99
  8
200
  6
AUSGEZOGEN
 10
1098.0
 20
56.0
 30
0.0
 11
-627.0
 21
56.0
 31
0.0
  0
LINE
  5
9A
  8
200
  6
AUSGEZOGEN
 10
737.0
 20
-5.0
 30
0.0
 11
737.0
 21
56.0
 31
0.0
  0
LINE
  5
9B
  8
200
  6
AUSGEZOGEN
 10
307.0
 20
-5.0
 30
0.0
 11
737.0
 21
-5.0
 31
0.0
  0
TEXT
  5
9C
  8
400
 10
1412.5
 20
560.0
 30
0.0
 40
45.0
  1
EZ: 230V 50Hz, Kabellänge 2,5m mit Schukostecker 0,44kW (OKFF 150mm)
 41
0.6
  0
ATTDEF
  5
9D
  8
550
 10
-619.0
 20
114.8112512219177
 30
0.0
 40
30.0
  1
CCO-KTM721170-70
  3
HKI-Nummer
  2
CCO-KSM731171-D
 70
     1
  0
TEXT
  5
9E
  8
510
 10
-619.0
 20
-75.081946034770226
 30
0.0
 40
30.0
  1
CCO-KSM731171-V
  0
LINE
  5
1A3
  8
200
  6
AUSGEZOGEN
 10
1098.0
 20
-25.0
 30
0.0
 11
-627.0
 21
-25.0
 31
0.0
  0
LINE
  5
2ED
  8
200
  6
AUSGEZOGEN
 10
-613.99999999999966
 20
56.0
 30
0.0
 11
-613.99999999999966
 21
-5.0
 31
0.0
  0
LINE
  5
2EE
  8
200
  6
AUSGEZOGEN
 10
-183.99999999999989
 20
-5.0
 30
0.0
 11
-183.99999999999989
 21
56.0
 31
0.0
  0
LINE
  5
2EF
  8
200
  6
AUSGEZOGEN
 10
-613.99999999999966
 20
-5.0
 30
0.0
 11
-183.99999999999989
 21
-5.0
 31
0.0
  0
LINE
  5
341
  8
200
  6
AUSGEZOGEN
 10
-153.0
 20
56.0
 30
0.0
 11
-153.0
 21
-5.0
 31
0.0
  0
LINE
  5
342
  8
200
  6
AUSGEZOGEN
 10
277.0
 20
-5.0
 30
0.0
 11
277.0
 21
56.0
 31
0.0
  0
LINE
  5
343
  8
200
  6
AUSGEZOGEN
 10
-153.0
 20
-5.0
 30
0.0
 11
277.0
 21
-5.0
 31
0.0
  0
INSERT
  5
4B4
  8
0
  6
CONTINUOUS
  2
A$C56ED5561
 10
-602.49998812855847
 20
106.5000018247938
 30
0.0
  0
LINE
  5
4B5
  8
200
  6
AUSGEZOGEN
 10
1098.0
 20
672.0
 30
0.0
 11
-627.0
 21
672.0
 31
0.0
  0
ENDSEC
  0
EOF
