  0
SECTION
  2
HEADER
  9
$ACADVER
  1
AC1009
  9
$INSBASE
 10
   0.0000
 20
   0.0000
 30
    0.0
  9
$EXTMIN
 10
 -38.0000
 20
-293.6100
 30
   0.0000
  9
$EXTMAX
 10
 380.0000
 20
 680.0000
 30
   0.0000
  9
$LTSCALE
 40
1.00
  9
$PSLTSCALE
 70
1
  0
ENDSEC
  0
SECTION
  2
TABLES
  0
TABLE
  2
LTYPE
 70
  5
  0
LTYPE
  2
AUSGEZOGEN
 70
 64
  3
AUSGEZOGEN
 72
 65
 73
  0
 40
0.0
  0
LTYPE
  2
PUNKTIERT
 70
 64
  3
Gepunktet
 72
 65
 73
  2
 40
30.0000
 49
0.0
 49
-30.0000
  0
LTYPE
  2
STRICHLIERT
 70
 64
  3
Strichliert
 72
 65
 73
  2
 40
80.0000
 49
50.0000
 49
-30.0000
  0
LTYPE
  2
STRICHPUNKT
 70
 64
  3
Strichpunktet
 72
 65
 73
  4
 40
160.0000
 49
100.0000
 49
-30.0000
 49
0.0
 49
-30.0000
  0
LTYPE
  2
STRICHPUNKTPUNKT
 70
 64
  3
Strichpunktpunktet
 72
 65
 73
  6
 40
190.0000
 49
100.0000
 49
-30.0000
 49
0.0
 49
-30.0000
 49
0.0
 49
-30.0000
  0
ENDTAB
  0
TABLE
  2
LAYER
 70
4
  0
LAYER
  2
550
 70
  0
 62
  2
  6
AUSGEZOGEN
  0
LAYER
  2
510
 70
  0
 62
  2
  6
AUSGEZOGEN
  0
LAYER
  2
0
 70
  0
 62
  1
  6
AUSGEZOGEN
  0
LAYER
  2
200
 70
  0
 62
  7
  6
AUSGEZOGEN
999
SWS-Layer-Line-Width
999
0.20
  0
ENDTAB
  0
TABLE
  2
STYLE
 70
  1
  0
STYLE
  2
STANDARD
 70
 64
 40
0.0
 41
1.0
 50
0.0
 71
  0
 42
30.0
  3
TXT.SHX
  4

  0
ENDTAB
  0
ENDSEC
  0
SECTION
  2
ENTITIES
  0
LINE
  8
200
  6
AUSGEZOGEN
 10
 380.0000
 20
 656.2500
 11
   0.0000
 21
 656.2500
  0
LINE
  8
200
  6
AUSGEZOGEN
 10
   0.0000
 20
 680.0000
 11
   0.0000
 21
 656.2500
  0
LINE
  8
200
  6
AUSGEZOGEN
 10
 380.0000
 20
 656.2500
 11
 380.0000
 21
 680.0000
  0
LINE
  8
200
  6
AUSGEZOGEN
 10
   0.0000
 20
 680.0000
 11
 380.0000
 21
 680.0000
  0
LINE
  8
200
  6
AUSGEZOGEN
 10
   0.2000
 20
 460.9600
 11
   0.2000
 21
 609.8300
  0
LINE
  8
200
  6
AUSGEZOGEN
 10
 380.0000
 20
 609.8300
 11
   0.2000
 21
 609.8300
  0
LINE
  8
200
  6
AUSGEZOGEN
 10
   0.1000
 20
 460.9600
 11
 380.0000
 21
 460.9600
  0
LINE
  8
200
  6
AUSGEZOGEN
 10
   0.1000
 20
 641.6800
 11
   0.1000
 21
 460.9600
  0
LINE
  8
200
  6
AUSGEZOGEN
 10
   0.2000
 20
 609.8300
 11
   0.1000
 21
 641.6800
  0
LINE
  8
200
  6
AUSGEZOGEN
 10
 380.0000
 20
 641.6800
 11
   0.1000
 21
 641.6800
  0
LINE
  8
200
  6
AUSGEZOGEN
 10
 380.0000
 20
 460.9600
 11
 380.0000
 21
 641.6800
  0
LINE
  8
200
  6
AUSGEZOGEN
 10
   0.0000
 20
 427.3900
 11
 380.0000
 21
 427.3900
  0
LINE
  8
200
  6
AUSGEZOGEN
 10
   0.0000
 20
 448.9800
 11
   0.0000
 21
 427.3900
  0
LINE
  8
200
  6
AUSGEZOGEN
 10
 380.0000
 20
 427.3900
 11
 380.0000
 21
 448.9800
  0
LINE
  8
200
  6
AUSGEZOGEN
 10
   0.0000
 20
 448.9800
 11
 380.0000
 21
 448.9800
  0
LINE
  8
200
  6
AUSGEZOGEN
 10
   0.2000
 20
 231.0200
 11
   0.2000
 21
 379.8900
  0
LINE
  8
200
  6
AUSGEZOGEN
 10
 380.0000
 20
 379.8900
 11
   0.2000
 21
 379.8900
  0
LINE
  8
200
  6
AUSGEZOGEN
 10
   0.1000
 20
 231.0200
 11
 380.0000
 21
 231.0200
  0
LINE
  8
200
  6
AUSGEZOGEN
 10
   0.1000
 20
 411.7400
 11
   0.1000
 21
 231.0200
  0
LINE
  8
200
  6
AUSGEZOGEN
 10
   0.2000
 20
 379.8900
 11
   0.1000
 21
 411.7400
  0
LINE
  8
200
  6
AUSGEZOGEN
 10
 380.0000
 20
 411.7400
 11
   0.1000
 21
 411.7400
  0
LINE
  8
200
  6
AUSGEZOGEN
 10
 380.0000
 20
 231.0200
 11
 380.0000
 21
 411.7400
  0
LINE
  8
200
  6
AUSGEZOGEN
 10
   0.0000
 20
 196.3700
 11
 380.0000
 21
 196.3700
  0
LINE
  8
200
  6
AUSGEZOGEN
 10
   0.0000
 20
 217.9600
 11
   0.0000
 21
 196.3700
  0
LINE
  8
200
  6
AUSGEZOGEN
 10
 380.0000
 20
 196.3700
 11
 380.0000
 21
 217.9600
  0
LINE
  8
200
  6
AUSGEZOGEN
 10
   0.0000
 20
 217.9600
 11
 380.0000
 21
 217.9600
  0
LINE
  8
200
  6
AUSGEZOGEN
 10
   0.2000
 20
   0.0000
 11
   0.2000
 21
 148.8700
  0
LINE
  8
200
  6
AUSGEZOGEN
 10
 380.0000
 20
 148.8700
 11
   0.2000
 21
 148.8700
  0
LINE
  8
200
  6
AUSGEZOGEN
 10
   0.1000
 20
   0.0000
 11
 380.0000
 21
   0.0000
  0
LINE
  8
200
  6
AUSGEZOGEN
 10
   0.1000
 20
 180.7100
 11
   0.1000
 21
   0.0000
  0
LINE
  8
200
  6
AUSGEZOGEN
 10
   0.2000
 20
 148.8700
 11
   0.1000
 21
 180.7100
  0
LINE
  8
200
  6
AUSGEZOGEN
 10
 380.0000
 20
 180.7100
 11
   0.1000
 21
 180.7100
  0
LINE
  8
200
  6
AUSGEZOGEN
 10
 380.0000
 20
   0.0000
 11
 380.0000
 21
 180.7100
  0
ATTDEF
  8
550
 10
10.0
 20
100.0
 30
0.0
 40
30
  1
CCO-701058
  2
CCO-701058V
  3
HKI-Nummer
 70
1
  0
TEXT
  8
510
 10
10.0
 20
-45.0
 30
0.0
 40
30
  1
CCO-701058
 50
0.0
 41
1.0
  7
STANDARD
  0
ENDSEC
  0
EOF
