  0
SECTION
  2
HEADER
  9
$ACADVER
  1
AC1009
  9
$INSBASE
 10
   0.0000
 20
   0.0000
 30
    0.0
  9
$EXTMIN
 10
-239.8000
 20
-139.5000
 30
   0.0000
  9
$EXTMAX
 10
4037.9020
 20
 933.0000
 30
   0.0000
  9
$LTSCALE
 40
1.00
  9
$PSLTSCALE
 70
1
  0
ENDSEC
  0
SECTION
  2
TABLES
  0
TABLE
  2
LTYPE
 70
  5
  0
LTYPE
  2
AUSGEZOGEN
 70
 64
  3
AUSGEZOGEN
 72
 65
 73
  0
 40
0.0
  0
LTYPE
  2
PUNKTIERT
 70
 64
  3
Gepunktet
 72
 65
 73
  2
 40
30.0000
 49
0.0
 49
-30.0000
  0
LTYPE
  2
STRICHLIERT
 70
 64
  3
Strichliert
 72
 65
 73
  2
 40
80.0000
 49
50.0000
 49
-30.0000
  0
LTYPE
  2
STRICHPUNKT
 70
 64
  3
Strichpunktet
 72
 65
 73
  4
 40
160.0000
 49
100.0000
 49
-30.0000
 49
0.0
 49
-30.0000
  0
LTYPE
  2
STRICHPUNKTPUNKT
 70
 64
  3
Strichpunktpunktet
 72
 65
 73
  6
 40
190.0000
 49
100.0000
 49
-30.0000
 49
0.0
 49
-30.0000
 49
0.0
 49
-30.0000
  0
ENDTAB
  0
TABLE
  2
LAYER
 70
6
  0
LAYER
  2
550
 70
  0
 62
  2
  6
AUSGEZOGEN
  0
LAYER
  2
510
 70
  0
 62
  2
  6
AUSGEZOGEN
  0
LAYER
  2
0
 70
  0
 62
  1
  6
AUSGEZOGEN
  0
LAYER
  2
200
 70
  0
 62
  7
  6
AUSGEZOGEN
999
SWS-Layer-Line-Width
999
0.20
  0
LAYER
  2
400
 70
  0
 62
  4
  6
AUSGEZOGEN
999
SWS-Layer-Line-Width
999
0.30
  0
LAYER
  2
440
 70
  0
 62
  4
  6
AUSGEZOGEN
  0
ENDTAB
  0
TABLE
  2
STYLE
 70
  1
  0
STYLE
  2
STANDARD
 70
 64
 40
0.0
 41
1.0
 50
0.0
 71
  0
 42
30.0
  3
TXT.SHX
  4

  0
ENDTAB
  0
ENDSEC
  0
SECTION
  2
ENTITIES
  0
LINE
  8
400
  6
AUSGEZOGEN
 10
2200.0000
 20
   0.0000
 11
2984.0000
 21
 766.5000
  0
LINE
  8
400
  6
AUSGEZOGEN
 10
3888.8200
 20
 766.5000
 11
2984.0000
 21
 766.5000
  0
LINE
  8
400
  6
AUSGEZOGEN
 10
2200.0000
 20
   0.0000
 11
2200.0000
 21
  75.0000
  0
LINE
  8
400
  6
AUSGEZOGEN
 10
2200.0000
 20
 -75.0000
 11
2200.0000
 21
   0.0000
  0
LINE
  8
400
  6
AUSGEZOGEN
 10
2275.0000
 20
   0.0000
 11
2200.0000
 21
   0.0000
  0
LINE
  8
400
  6
AUSGEZOGEN
 10
2125.0000
 20
   0.0000
 11
2200.0000
 21
   0.0000
  0
CIRCLE
  8
400
  6
AUSGEZOGEN
 10
2200.0000
 20
   0.0000
 40
  50.0000
  0
LINE
  8
440
  6
AUSGEZOGEN
 10
2200.0000
 20
   0.0000
 11
2984.0000
 21
 646.5000
  0
LINE
  8
440
  6
AUSGEZOGEN
 10
3461.0300
 20
 646.5000
 11
2984.0000
 21
 646.5000
  0
LINE
  8
440
  6
AUSGEZOGEN
 10
2200.0000
 20
   0.0000
 11
2200.0000
 21
  75.0000
  0
LINE
  8
440
  6
AUSGEZOGEN
 10
2200.0000
 20
 -75.0000
 11
2200.0000
 21
   0.0000
  0
LINE
  8
440
  6
AUSGEZOGEN
 10
2275.0000
 20
   0.0000
 11
2200.0000
 21
   0.0000
  0
LINE
  8
440
  6
AUSGEZOGEN
 10
2125.0000
 20
   0.0000
 11
2200.0000
 21
   0.0000
  0
CIRCLE
  8
440
  6
AUSGEZOGEN
 10
2200.0000
 20
   0.0000
 40
  50.0000
  0
LINE
  8
440
  6
AUSGEZOGEN
 10
2200.0000
 20
   0.0000
 11
2984.0000
 21
 526.5000
  0
LINE
  8
440
  6
AUSGEZOGEN
 10
3627.6100
 20
 526.5000
 11
2984.0000
 21
 526.5000
  0
LINE
  8
440
  6
AUSGEZOGEN
 10
2200.0000
 20
   0.0000
 11
2200.0000
 21
  75.0000
  0
LINE
  8
440
  6
AUSGEZOGEN
 10
2200.0000
 20
 -75.0000
 11
2200.0000
 21
   0.0000
  0
LINE
  8
440
  6
AUSGEZOGEN
 10
2275.0000
 20
   0.0000
 11
2200.0000
 21
   0.0000
  0
LINE
  8
440
  6
AUSGEZOGEN
 10
2125.0000
 20
   0.0000
 11
2200.0000
 21
   0.0000
  0
CIRCLE
  8
440
  6
AUSGEZOGEN
 10
2200.0000
 20
   0.0000
 40
  50.0000
  0
LINE
  8
200
  6
AUSGEZOGEN
 10
2262.0000
 20
 765.0000
 11
2222.0000
 21
 765.0000
  0
LINE
  8
200
  6
AUSGEZOGEN
 10
2222.0000
 20
 805.0000
 11
2222.0000
 21
 765.0000
  0
LINE
  8
200
  6
AUSGEZOGEN
 10
2262.0000
 20
 805.0000
 11
2222.0000
 21
 805.0000
  0
LINE
  8
200
  6
AUSGEZOGEN
 10
2262.0000
 20
 765.0000
 11
2262.0000
 21
 805.0000
  0
LINE
  8
200
  6
AUSGEZOGEN
 10
2222.0000
 20
 785.0000
 11
2262.0000
 21
 785.0000
  0
LINE
  8
200
  6
AUSGEZOGEN
 10
2302.0000
 20
 865.0000
 11
2302.0000
 21
 825.0000
  0
LINE
  8
200
  6
AUSGEZOGEN
 10
2382.0000
 20
 825.0000
 11
2382.0000
 21
 865.0000
  0
LINE
  8
200
  6
AUSGEZOGEN
 10
2312.0000
 20
 860.0000
 11
2312.0000
 21
 830.0000
  0
LINE
  8
200
  6
AUSGEZOGEN
 10
2372.0000
 20
 830.0000
 11
2312.0000
 21
 830.0000
  0
LINE
  8
200
  6
AUSGEZOGEN
 10
2372.0000
 20
 860.0000
 11
2372.0000
 21
 830.0000
  0
LINE
  8
200
  6
AUSGEZOGEN
 10
2312.0000
 20
 860.0000
 11
2372.0000
 21
 860.0000
  0
LINE
  8
200
  6
AUSGEZOGEN
 10
2330.0000
 20
 857.0000
 11
2320.0000
 21
 857.0000
  0
LINE
  8
200
  6
AUSGEZOGEN
 10
2330.0000
 20
 847.0000
 11
2330.0000
 21
 857.0000
  0
LINE
  8
200
  6
AUSGEZOGEN
 10
2320.0000
 20
 847.0000
 11
2330.0000
 21
 847.0000
  0
LINE
  8
200
  6
AUSGEZOGEN
 10
2320.0000
 20
 857.0000
 11
2320.0000
 21
 847.0000
  0
LINE
  8
200
  6
AUSGEZOGEN
 10
2330.0000
 20
 833.0000
 11
2320.0000
 21
 833.0000
  0
LINE
  8
200
  6
AUSGEZOGEN
 10
2330.0000
 20
 843.0000
 11
2330.0000
 21
 833.0000
  0
LINE
  8
200
  6
AUSGEZOGEN
 10
2320.0000
 20
 843.0000
 11
2330.0000
 21
 843.0000
  0
LINE
  8
200
  6
AUSGEZOGEN
 10
2320.0000
 20
 833.0000
 11
2320.0000
 21
 843.0000
  0
LINE
  8
200
  6
AUSGEZOGEN
 10
2334.0000
 20
 857.0000
 11
2334.0000
 21
 847.0000
  0
LINE
  8
200
  6
AUSGEZOGEN
 10
2344.0000
 20
 857.0000
 11
2334.0000
 21
 857.0000
  0
LINE
  8
200
  6
AUSGEZOGEN
 10
2344.0000
 20
 847.0000
 11
2344.0000
 21
 857.0000
  0
LINE
  8
200
  6
AUSGEZOGEN
 10
2334.0000
 20
 847.0000
 11
2344.0000
 21
 847.0000
  0
LINE
  8
200
  6
AUSGEZOGEN
 10
2344.0000
 20
 843.0000
 11
2334.0000
 21
 843.0000
  0
LINE
  8
200
  6
AUSGEZOGEN
 10
2344.0000
 20
 833.0000
 11
2344.0000
 21
 843.0000
  0
LINE
  8
200
  6
AUSGEZOGEN
 10
2334.0000
 20
 833.0000
 11
2344.0000
 21
 833.0000
  0
LINE
  8
200
  6
AUSGEZOGEN
 10
2334.0000
 20
 843.0000
 11
2334.0000
 21
 833.0000
  0
LINE
  8
200
  6
AUSGEZOGEN
 10
2348.0000
 20
 857.0000
 11
2348.0000
 21
 833.0000
  0
LINE
  8
200
  6
AUSGEZOGEN
 10
2363.0000
 20
 857.0000
 11
2348.0000
 21
 857.0000
  0
LINE
  8
200
  6
AUSGEZOGEN
 10
2363.0000
 20
 833.0000
 11
2363.0000
 21
 857.0000
  0
LINE
  8
200
  6
AUSGEZOGEN
 10
2348.0000
 20
 833.0000
 11
2363.0000
 21
 833.0000
  0
LINE
  8
200
  6
AUSGEZOGEN
 10
2352.0000
 20
 848.0000
 11
2352.0000
 21
 842.0000
  0
LINE
  8
200
  6
AUSGEZOGEN
 10
2358.0000
 20
 842.0000
 11
2352.0000
 21
 842.0000
  0
LINE
  8
200
  6
AUSGEZOGEN
 10
2358.0000
 20
 848.0000
 11
2358.0000
 21
 842.0000
  0
LINE
  8
200
  6
AUSGEZOGEN
 10
2352.0000
 20
 848.0000
 11
2358.0000
 21
 848.0000
  0
LINE
  8
200
  6
AUSGEZOGEN
 10
2222.0000
 20
 825.0000
 11
2382.0000
 21
 825.0000
  0
LINE
  8
200
  6
AUSGEZOGEN
 10
2222.0000
 20
 865.0000
 11
2222.0000
 21
 825.0000
  0
LINE
  8
200
  6
AUSGEZOGEN
 10
2382.0000
 20
 865.0000
 11
2222.0000
 21
 865.0000
  0
LINE
  8
200
  6
AUSGEZOGEN
 10
2232.0000
 20
 830.0000
 11
2232.0000
 21
 860.0000
  0
LINE
  8
200
  6
AUSGEZOGEN
 10
2292.0000
 20
 830.0000
 11
2232.0000
 21
 830.0000
  0
LINE
  8
200
  6
AUSGEZOGEN
 10
2292.0000
 20
 860.0000
 11
2292.0000
 21
 830.0000
  0
LINE
  8
200
  6
AUSGEZOGEN
 10
2232.0000
 20
 860.0000
 11
2292.0000
 21
 860.0000
  0
LINE
  8
200
  6
AUSGEZOGEN
 10
2250.0000
 20
 857.0000
 11
2240.0000
 21
 857.0000
  0
LINE
  8
200
  6
AUSGEZOGEN
 10
2250.0000
 20
 847.0000
 11
2250.0000
 21
 857.0000
  0
LINE
  8
200
  6
AUSGEZOGEN
 10
2240.0000
 20
 847.0000
 11
2250.0000
 21
 847.0000
  0
LINE
  8
200
  6
AUSGEZOGEN
 10
2240.0000
 20
 857.0000
 11
2240.0000
 21
 847.0000
  0
LINE
  8
200
  6
AUSGEZOGEN
 10
2250.0000
 20
 833.0000
 11
2240.0000
 21
 833.0000
  0
LINE
  8
200
  6
AUSGEZOGEN
 10
2250.0000
 20
 843.0000
 11
2250.0000
 21
 833.0000
  0
LINE
  8
200
  6
AUSGEZOGEN
 10
2240.0000
 20
 843.0000
 11
2250.0000
 21
 843.0000
  0
LINE
  8
200
  6
AUSGEZOGEN
 10
2240.0000
 20
 833.0000
 11
2240.0000
 21
 843.0000
  0
LINE
  8
200
  6
AUSGEZOGEN
 10
2254.0000
 20
 857.0000
 11
2254.0000
 21
 847.0000
  0
LINE
  8
200
  6
AUSGEZOGEN
 10
2264.0000
 20
 857.0000
 11
2254.0000
 21
 857.0000
  0
LINE
  8
200
  6
AUSGEZOGEN
 10
2264.0000
 20
 847.0000
 11
2264.0000
 21
 857.0000
  0
LINE
  8
200
  6
AUSGEZOGEN
 10
2254.0000
 20
 847.0000
 11
2264.0000
 21
 847.0000
  0
LINE
  8
200
  6
AUSGEZOGEN
 10
2264.0000
 20
 843.0000
 11
2254.0000
 21
 843.0000
  0
LINE
  8
200
  6
AUSGEZOGEN
 10
2264.0000
 20
 833.0000
 11
2264.0000
 21
 843.0000
  0
LINE
  8
200
  6
AUSGEZOGEN
 10
2254.0000
 20
 833.0000
 11
2264.0000
 21
 833.0000
  0
LINE
  8
200
  6
AUSGEZOGEN
 10
2254.0000
 20
 843.0000
 11
2254.0000
 21
 833.0000
  0
LINE
  8
200
  6
AUSGEZOGEN
 10
2268.0000
 20
 857.0000
 11
2268.0000
 21
 833.0000
  0
LINE
  8
200
  6
AUSGEZOGEN
 10
2283.0000
 20
 857.0000
 11
2268.0000
 21
 857.0000
  0
LINE
  8
200
  6
AUSGEZOGEN
 10
2283.0000
 20
 833.0000
 11
2283.0000
 21
 857.0000
  0
LINE
  8
200
  6
AUSGEZOGEN
 10
2268.0000
 20
 833.0000
 11
2283.0000
 21
 833.0000
  0
LINE
  8
200
  6
AUSGEZOGEN
 10
2272.0000
 20
 848.0000
 11
2272.0000
 21
 842.0000
  0
LINE
  8
200
  6
AUSGEZOGEN
 10
2278.0000
 20
 842.0000
 11
2272.0000
 21
 842.0000
  0
LINE
  8
200
  6
AUSGEZOGEN
 10
2278.0000
 20
 848.0000
 11
2278.0000
 21
 842.0000
  0
LINE
  8
200
  6
AUSGEZOGEN
 10
2272.0000
 20
 848.0000
 11
2278.0000
 21
 848.0000
  0
LINE
  8
200
  6
AUSGEZOGEN
 10
2202.0000
 20
  10.0000
 11
2202.1000
 21
 890.0000
  0
LINE
  8
200
  6
AUSGEZOGEN
 10
2397.0000
 20
 414.9000
 11
2202.0000
 21
 414.9000
  0
LINE
  8
200
  6
AUSGEZOGEN
 10
2202.0000
 20
 484.9000
 11
2397.0000
 21
 484.9000
  0
LINE
  8
200
  6
AUSGEZOGEN
 10
2397.0000
 20
 404.9000
 11
2202.0000
 21
 404.9000
  0
LINE
  8
200
  6
AUSGEZOGEN
 10
2202.0000
 20
 494.9000
 11
2397.0000
 21
 494.9000
  0
LINE
  8
200
  6
AUSGEZOGEN
 10
2202.0000
 20
  10.0000
 11
2202.0900
 21
 890.0000
  0
LINE
  8
200
  6
AUSGEZOGEN
 10
1180.0000
 20
 580.0000
 11
1574.0000
 21
 580.0000
  0
LINE
  8
200
  6
AUSGEZOGEN
 10
1574.0000
 20
 590.0000
 11
1180.0000
 21
 590.0000
  0
LINE
  8
200
  6
AUSGEZOGEN
 10
1180.0000
 20
 320.0000
 11
1574.0000
 21
 320.0000
  0
LINE
  8
200
  6
AUSGEZOGEN
 10
1574.0000
 20
 330.0000
 11
1180.0000
 21
 330.0000
  0
LINE
  8
200
  6
AUSGEZOGEN
 10
1180.0000
 20
 825.0000
 11
1180.0000
 21
  75.0000
  0
LINE
  8
200
  6
AUSGEZOGEN
 10
1130.0000
 20
  25.0000
 11
1130.0000
 21
 875.0000
  0
LINE
  8
200
  6
AUSGEZOGEN
 10
1624.0000
 20
  25.0000
 11
1130.0000
 21
  25.0000
  0
LINE
  8
200
  6
AUSGEZOGEN
 10
1180.0000
 20
  75.0000
 11
1574.0000
 21
  75.0000
  0
LINE
  8
200
  6
AUSGEZOGEN
 10
1574.0000
 20
 825.0000
 11
1574.0000
 21
  75.0000
  0
LINE
  8
200
  6
AUSGEZOGEN
 10
1130.0000
 20
 875.0000
 11
1624.0000
 21
 875.0000
  0
LINE
  8
200
  6
AUSGEZOGEN
 10
1574.0000
 20
 825.0000
 11
1180.0000
 21
 825.0000
  0
LINE
  8
200
  6
AUSGEZOGEN
 10
1628.3300
 20
 601.5100
 11
1628.3300
 21
 622.7600
  0
LINE
  8
200
  6
AUSGEZOGEN
 10
1645.6700
 20
 622.7600
 11
1628.3300
 21
 622.7600
  0
LINE
  8
200
  6
AUSGEZOGEN
 10
1645.6700
 20
 601.5100
 11
1645.6700
 21
 622.7600
  0
LINE
  8
200
  6
AUSGEZOGEN
 10
1624.0000
 20
 414.2800
 11
1650.0000
 21
 414.2800
  0
LINE
  8
200
  6
AUSGEZOGEN
 10
1628.3300
 20
 596.4500
 11
1624.0000
 21
 596.4500
  0
LINE
  8
200
  6
AUSGEZOGEN
 10
1650.0000
 20
 596.4500
 11
1645.6700
 21
 596.4500
  0
LINE
  8
200
  6
AUSGEZOGEN
 10
1624.0000
 20
 434.5200
 11
1650.0000
 21
 434.5200
  0
LINE
  8
200
  6
AUSGEZOGEN
 10
1624.0000
 20
 875.0000
 11
1624.0000
 21
  25.0000
  0
LINE
  8
200
  6
AUSGEZOGEN
 10
1628.3300
 20
 616.6900
 11
1624.0000
 21
 616.6900
  0
LINE
  8
200
  6
AUSGEZOGEN
 10
1650.0000
 20
 616.6900
 11
1645.6700
 21
 616.6900
  0
LINE
  8
200
  6
AUSGEZOGEN
 10
1650.0000
 20
 414.2800
 11
1650.0000
 21
 616.6900
  0
LINE
  8
200
  6
AUSGEZOGEN
 10
1628.3300
 20
 483.1000
 11
1645.6700
 21
 483.1000
  0
LINE
  8
200
  6
AUSGEZOGEN
 10
1628.3300
 20
 600.4900
 11
1628.3300
 21
 483.1000
  0
LINE
  8
200
  6
AUSGEZOGEN
 10
1645.6700
 20
 483.1000
 11
1645.6700
 21
 600.4900
  0
LINE
  8
200
  6
AUSGEZOGEN
 10
1639.3700
 20
 449.7000
 11
1642.9700
 21
 452.3900
  0
LINE
  8
200
  6
AUSGEZOGEN
 10
1633.9700
 20
 449.7000
 11
1639.3700
 21
 449.7000
  0
LINE
  8
200
  6
AUSGEZOGEN
 10
1630.3700
 20
 452.3900
 11
1633.9700
 21
 449.7000
  0
LINE
  8
200
  6
AUSGEZOGEN
 10
1627.6700
 20
 456.0000
 11
1630.3700
 21
 452.3900
  0
LINE
  8
200
  6
AUSGEZOGEN
 10
1630.3700
 20
 465.0000
 11
1627.6700
 21
 461.4000
  0
LINE
  8
200
  6
AUSGEZOGEN
 10
1633.9700
 20
 467.7000
 11
1630.3700
 21
 465.0000
  0
LINE
  8
200
  6
AUSGEZOGEN
 10
1642.9700
 20
 465.0000
 11
1639.3700
 21
 467.7000
  0
LINE
  8
200
  6
AUSGEZOGEN
 10
1645.6700
 20
 461.4000
 11
1642.9700
 21
 465.0000
  0
LINE
  8
200
  6
AUSGEZOGEN
 10
1645.6700
 20
 456.0000
 11
1645.6700
 21
 461.4000
  0
LINE
  8
200
  6
AUSGEZOGEN
 10
1642.9700
 20
 452.3900
 11
1645.6700
 21
 456.0000
  0
LINE
  8
200
  6
AUSGEZOGEN
 10
1633.9700
 20
 467.7000
 11
1639.3700
 21
 467.7000
  0
LINE
  8
200
  6
AUSGEZOGEN
 10
1627.6700
 20
 456.0000
 11
1627.6700
 21
 461.4000
  0
LINE
  8
200
  6
AUSGEZOGEN
 10
 630.0000
 20
 590.0000
 11
1024.0000
 21
 590.0000
  0
LINE
  8
200
  6
AUSGEZOGEN
 10
1024.0000
 20
 580.0000
 11
 630.0000
 21
 580.0000
  0
LINE
  8
200
  6
AUSGEZOGEN
 10
 630.0000
 20
 330.0000
 11
1024.0000
 21
 330.0000
  0
LINE
  8
200
  6
AUSGEZOGEN
 10
1024.0000
 20
 320.0000
 11
 630.0000
 21
 320.0000
  0
LINE
  8
200
  6
AUSGEZOGEN
 10
1024.0000
 20
 825.0000
 11
1024.0000
 21
  75.0000
  0
LINE
  8
200
  6
AUSGEZOGEN
 10
1074.0000
 20
  25.0000
 11
1074.0000
 21
 875.0000
  0
LINE
  8
200
  6
AUSGEZOGEN
 10
 630.0000
 20
  75.0000
 11
1024.0000
 21
  75.0000
  0
LINE
  8
200
  6
AUSGEZOGEN
 10
1074.0000
 20
  25.0000
 11
 580.0000
 21
  25.0000
  0
LINE
  8
200
  6
AUSGEZOGEN
 10
 630.0000
 20
 825.0000
 11
 630.0000
 21
  75.0000
  0
LINE
  8
200
  6
AUSGEZOGEN
 10
1074.0000
 20
 875.0000
 11
 580.0000
 21
 875.0000
  0
LINE
  8
200
  6
AUSGEZOGEN
 10
 630.0000
 20
 825.0000
 11
1024.0000
 21
 825.0000
  0
LINE
  8
200
  6
AUSGEZOGEN
 10
 558.3300
 20
 601.5100
 11
 558.3300
 21
 622.7600
  0
LINE
  8
200
  6
AUSGEZOGEN
 10
 575.6700
 20
 622.7600
 11
 558.3300
 21
 622.7600
  0
LINE
  8
200
  6
AUSGEZOGEN
 10
 575.6700
 20
 601.5100
 11
 575.6700
 21
 622.7600
  0
LINE
  8
200
  6
AUSGEZOGEN
 10
 554.0000
 20
 616.6900
 11
 558.3300
 21
 616.6900
  0
LINE
  8
200
  6
AUSGEZOGEN
 10
 580.0000
 20
 616.6900
 11
 575.6700
 21
 616.6900
  0
LINE
  8
200
  6
AUSGEZOGEN
 10
 554.0000
 20
 434.5200
 11
 580.0000
 21
 434.5200
  0
LINE
  8
200
  6
AUSGEZOGEN
 10
 558.3300
 20
 596.4500
 11
 554.0000
 21
 596.4500
  0
LINE
  8
200
  6
AUSGEZOGEN
 10
 580.0000
 20
 596.4500
 11
 575.6700
 21
 596.4500
  0
LINE
  8
200
  6
AUSGEZOGEN
 10
 554.0000
 20
 414.2800
 11
 580.0000
 21
 414.2800
  0
LINE
  8
200
  6
AUSGEZOGEN
 10
 554.0000
 20
 616.6900
 11
 554.0000
 21
 414.2800
  0
LINE
  8
200
  6
AUSGEZOGEN
 10
 580.0000
 20
  25.0000
 11
 580.0000
 21
 875.0000
  0
LINE
  8
200
  6
AUSGEZOGEN
 10
 558.3300
 20
 483.1000
 11
 575.6700
 21
 483.1000
  0
LINE
  8
200
  6
AUSGEZOGEN
 10
 558.3300
 20
 600.4900
 11
 558.3300
 21
 483.1000
  0
LINE
  8
200
  6
AUSGEZOGEN
 10
 575.6700
 20
 483.1000
 11
 575.6700
 21
 600.4900
  0
LINE
  8
200
  6
AUSGEZOGEN
 10
 561.0300
 20
 452.3900
 11
 558.3300
 21
 456.0000
  0
LINE
  8
200
  6
AUSGEZOGEN
 10
 558.3300
 20
 461.4000
 11
 558.3300
 21
 456.0000
  0
LINE
  8
200
  6
AUSGEZOGEN
 10
 561.0300
 20
 465.0000
 11
 558.3300
 21
 461.4000
  0
LINE
  8
200
  6
AUSGEZOGEN
 10
 564.6300
 20
 467.7000
 11
 561.0300
 21
 465.0000
  0
LINE
  8
200
  6
AUSGEZOGEN
 10
 570.0300
 20
 467.7000
 11
 564.6300
 21
 467.7000
  0
LINE
  8
200
  6
AUSGEZOGEN
 10
 573.6300
 20
 465.0000
 11
 570.0300
 21
 467.7000
  0
LINE
  8
200
  6
AUSGEZOGEN
 10
 576.3300
 20
 461.4000
 11
 573.6300
 21
 465.0000
  0
LINE
  8
200
  6
AUSGEZOGEN
 10
 573.6300
 20
 452.3900
 11
 576.3300
 21
 456.0000
  0
LINE
  8
200
  6
AUSGEZOGEN
 10
 570.0300
 20
 449.7000
 11
 573.6300
 21
 452.3900
  0
LINE
  8
200
  6
AUSGEZOGEN
 10
 561.0300
 20
 452.3900
 11
 564.6300
 21
 449.7000
  0
LINE
  8
200
  6
AUSGEZOGEN
 10
 576.3300
 20
 461.4000
 11
 576.3300
 21
 456.0000
  0
LINE
  8
200
  6
AUSGEZOGEN
 10
 564.6300
 20
 449.7000
 11
 570.0300
 21
 449.7000
  0
LINE
  8
200
  6
AUSGEZOGEN
 10
2124.0000
 20
 590.0000
 11
1730.0000
 21
 590.0000
  0
LINE
  8
200
  6
AUSGEZOGEN
 10
1730.0000
 20
 580.0000
 11
2124.0000
 21
 580.0000
  0
LINE
  8
200
  6
AUSGEZOGEN
 10
2124.0000
 20
 330.0000
 11
1730.0000
 21
 330.0000
  0
LINE
  8
200
  6
AUSGEZOGEN
 10
1730.0000
 20
 320.0000
 11
2124.0000
 21
 320.0000
  0
LINE
  8
200
  6
AUSGEZOGEN
 10
2124.0000
 20
 825.0000
 11
2124.0000
 21
  75.0000
  0
LINE
  8
200
  6
AUSGEZOGEN
 10
2174.0000
 20
  25.0000
 11
2174.0000
 21
 875.0000
  0
LINE
  8
200
  6
AUSGEZOGEN
 10
1730.0000
 20
  75.0000
 11
2124.0000
 21
  75.0000
  0
LINE
  8
200
  6
AUSGEZOGEN
 10
2174.0000
 20
  25.0000
 11
1680.0000
 21
  25.0000
  0
LINE
  8
200
  6
AUSGEZOGEN
 10
1730.0000
 20
 825.0000
 11
1730.0000
 21
  75.0000
  0
LINE
  8
200
  6
AUSGEZOGEN
 10
2174.0000
 20
 875.0000
 11
1680.0000
 21
 875.0000
  0
LINE
  8
200
  6
AUSGEZOGEN
 10
1730.0000
 20
 825.0000
 11
2124.0000
 21
 825.0000
  0
LINE
  8
200
  6
AUSGEZOGEN
 10
1658.3300
 20
 601.5100
 11
1658.3300
 21
 622.7600
  0
LINE
  8
200
  6
AUSGEZOGEN
 10
1675.6700
 20
 622.7600
 11
1658.3300
 21
 622.7600
  0
LINE
  8
200
  6
AUSGEZOGEN
 10
1675.6700
 20
 601.5100
 11
1675.6700
 21
 622.7600
  0
LINE
  8
200
  6
AUSGEZOGEN
 10
1654.0000
 20
 616.6900
 11
1658.3300
 21
 616.6900
  0
LINE
  8
200
  6
AUSGEZOGEN
 10
1680.0000
 20
 616.6900
 11
1675.6700
 21
 616.6900
  0
LINE
  8
200
  6
AUSGEZOGEN
 10
1654.0000
 20
 434.5200
 11
1680.0000
 21
 434.5200
  0
LINE
  8
200
  6
AUSGEZOGEN
 10
1658.3300
 20
 596.4500
 11
1654.0000
 21
 596.4500
  0
LINE
  8
200
  6
AUSGEZOGEN
 10
1680.0000
 20
 596.4500
 11
1675.6700
 21
 596.4500
  0
LINE
  8
200
  6
AUSGEZOGEN
 10
1654.0000
 20
 414.2800
 11
1680.0000
 21
 414.2800
  0
LINE
  8
200
  6
AUSGEZOGEN
 10
1654.0000
 20
 616.6900
 11
1654.0000
 21
 414.2800
  0
LINE
  8
200
  6
AUSGEZOGEN
 10
1680.0000
 20
  25.0000
 11
1680.0000
 21
 875.0000
  0
LINE
  8
200
  6
AUSGEZOGEN
 10
1658.3300
 20
 483.1000
 11
1675.6700
 21
 483.1000
  0
LINE
  8
200
  6
AUSGEZOGEN
 10
1658.3300
 20
 600.4900
 11
1658.3300
 21
 483.1000
  0
LINE
  8
200
  6
AUSGEZOGEN
 10
1675.6700
 20
 483.1000
 11
1675.6700
 21
 600.4900
  0
LINE
  8
200
  6
AUSGEZOGEN
 10
1661.0300
 20
 452.3900
 11
1658.3300
 21
 456.0000
  0
LINE
  8
200
  6
AUSGEZOGEN
 10
1658.3300
 20
 461.4000
 11
1658.3300
 21
 456.0000
  0
LINE
  8
200
  6
AUSGEZOGEN
 10
1661.0300
 20
 465.0000
 11
1658.3300
 21
 461.4000
  0
LINE
  8
200
  6
AUSGEZOGEN
 10
1664.6300
 20
 467.7000
 11
1661.0300
 21
 465.0000
  0
LINE
  8
200
  6
AUSGEZOGEN
 10
1670.0300
 20
 467.7000
 11
1664.6300
 21
 467.7000
  0
LINE
  8
200
  6
AUSGEZOGEN
 10
1673.6300
 20
 465.0000
 11
1670.0300
 21
 467.7000
  0
LINE
  8
200
  6
AUSGEZOGEN
 10
1676.3300
 20
 461.4000
 11
1673.6300
 21
 465.0000
  0
LINE
  8
200
  6
AUSGEZOGEN
 10
1673.6300
 20
 452.3900
 11
1676.3300
 21
 456.0000
  0
LINE
  8
200
  6
AUSGEZOGEN
 10
1670.0300
 20
 449.7000
 11
1673.6300
 21
 452.3900
  0
LINE
  8
200
  6
AUSGEZOGEN
 10
1661.0300
 20
 452.3900
 11
1664.6300
 21
 449.7000
  0
LINE
  8
200
  6
AUSGEZOGEN
 10
1676.3300
 20
 461.4000
 11
1676.3300
 21
 456.0000
  0
LINE
  8
200
  6
AUSGEZOGEN
 10
1664.6300
 20
 449.7000
 11
1670.0300
 21
 449.7000
  0
LINE
  8
200
  6
AUSGEZOGEN
 10
2202.0000
 20
 890.0000
 11
2202.0000
 21
  10.0000
  0
LINE
  8
200
  6
AUSGEZOGEN
 10
  80.0000
 20
 580.0000
 11
 474.0000
 21
 580.0000
  0
LINE
  8
200
  6
AUSGEZOGEN
 10
 474.0000
 20
 590.0000
 11
  80.0000
 21
 590.0000
  0
LINE
  8
200
  6
AUSGEZOGEN
 10
  80.0000
 20
 320.0000
 11
 474.0000
 21
 320.0000
  0
LINE
  8
200
  6
AUSGEZOGEN
 10
 474.0000
 20
 330.0000
 11
  80.0000
 21
 330.0000
  0
LINE
  8
200
  6
AUSGEZOGEN
 10
  80.0000
 20
 825.0000
 11
  80.0000
 21
  75.0000
  0
LINE
  8
200
  6
AUSGEZOGEN
 10
  30.0000
 20
  25.0000
 11
  30.0000
 21
 875.0000
  0
LINE
  8
200
  6
AUSGEZOGEN
 10
 524.0000
 20
  25.0000
 11
  30.0000
 21
  25.0000
  0
LINE
  8
200
  6
AUSGEZOGEN
 10
  80.0000
 20
  75.0000
 11
 474.0000
 21
  75.0000
  0
LINE
  8
200
  6
AUSGEZOGEN
 10
 474.0000
 20
 825.0000
 11
 474.0000
 21
  75.0000
  0
LINE
  8
200
  6
AUSGEZOGEN
 10
  30.0000
 20
 875.0000
 11
 524.0000
 21
 875.0000
  0
LINE
  8
200
  6
AUSGEZOGEN
 10
 474.0000
 20
 825.0000
 11
  80.0000
 21
 825.0000
  0
LINE
  8
200
  6
AUSGEZOGEN
 10
 528.3300
 20
 601.5100
 11
 528.3300
 21
 622.7600
  0
LINE
  8
200
  6
AUSGEZOGEN
 10
 545.6700
 20
 622.7600
 11
 528.3300
 21
 622.7600
  0
LINE
  8
200
  6
AUSGEZOGEN
 10
 545.6700
 20
 601.5100
 11
 545.6700
 21
 622.7600
  0
LINE
  8
200
  6
AUSGEZOGEN
 10
 524.0000
 20
 414.2800
 11
 550.0000
 21
 414.2800
  0
LINE
  8
200
  6
AUSGEZOGEN
 10
 528.3300
 20
 596.4500
 11
 524.0000
 21
 596.4500
  0
LINE
  8
200
  6
AUSGEZOGEN
 10
 550.0000
 20
 596.4500
 11
 545.6700
 21
 596.4500
  0
LINE
  8
200
  6
AUSGEZOGEN
 10
 524.0000
 20
 434.5200
 11
 550.0000
 21
 434.5200
  0
LINE
  8
200
  6
AUSGEZOGEN
 10
 524.0000
 20
 875.0000
 11
 524.0000
 21
  25.0000
  0
LINE
  8
200
  6
AUSGEZOGEN
 10
 528.3300
 20
 616.6900
 11
 524.0000
 21
 616.6900
  0
LINE
  8
200
  6
AUSGEZOGEN
 10
 550.0000
 20
 616.6900
 11
 545.6700
 21
 616.6900
  0
LINE
  8
200
  6
AUSGEZOGEN
 10
 550.0000
 20
 414.2800
 11
 550.0000
 21
 616.6900
  0
LINE
  8
200
  6
AUSGEZOGEN
 10
 528.3300
 20
 483.1000
 11
 545.6700
 21
 483.1000
  0
LINE
  8
200
  6
AUSGEZOGEN
 10
 528.3300
 20
 600.4900
 11
 528.3300
 21
 483.1000
  0
LINE
  8
200
  6
AUSGEZOGEN
 10
 545.6700
 20
 483.1000
 11
 545.6700
 21
 600.4900
  0
LINE
  8
200
  6
AUSGEZOGEN
 10
 539.3700
 20
 449.7000
 11
 542.9700
 21
 452.3900
  0
LINE
  8
200
  6
AUSGEZOGEN
 10
 533.9700
 20
 449.7000
 11
 539.3700
 21
 449.7000
  0
LINE
  8
200
  6
AUSGEZOGEN
 10
 530.3700
 20
 452.3900
 11
 533.9700
 21
 449.7000
  0
LINE
  8
200
  6
AUSGEZOGEN
 10
 527.6700
 20
 456.0000
 11
 530.3700
 21
 452.3900
  0
LINE
  8
200
  6
AUSGEZOGEN
 10
 530.3700
 20
 465.0000
 11
 527.6700
 21
 461.4000
  0
LINE
  8
200
  6
AUSGEZOGEN
 10
 533.9700
 20
 467.7000
 11
 530.3700
 21
 465.0000
  0
LINE
  8
200
  6
AUSGEZOGEN
 10
 542.9700
 20
 465.0000
 11
 539.3700
 21
 467.7000
  0
LINE
  8
200
  6
AUSGEZOGEN
 10
 545.6700
 20
 461.4000
 11
 542.9700
 21
 465.0000
  0
LINE
  8
200
  6
AUSGEZOGEN
 10
 545.6700
 20
 456.0000
 11
 545.6700
 21
 461.4000
  0
LINE
  8
200
  6
AUSGEZOGEN
 10
 542.9700
 20
 452.3900
 11
 545.6700
 21
 456.0000
  0
LINE
  8
200
  6
AUSGEZOGEN
 10
 533.9700
 20
 467.7000
 11
 539.3700
 21
 467.7000
  0
LINE
  8
200
  6
AUSGEZOGEN
 10
 527.6700
 20
 456.0000
 11
 527.6700
 21
 461.4000
  0
LINE
  8
200
  6
AUSGEZOGEN
 10
2397.0000
 20
   0.0000
 11
   2.0000
 21
   0.0000
  0
LINE
  8
200
  6
AUSGEZOGEN
 10
   2.0000
 20
 890.0000
 11
   2.0000
 21
   0.0000
  0
LINE
  8
200
  6
AUSGEZOGEN
 10
2397.0000
 20
   0.0000
 11
2397.0000
 21
 890.0000
  0
LINE
  8
200
  6
AUSGEZOGEN
 10
   2.0000
 20
  10.0000
 11
2397.0000
 21
  10.0000
  0
LINE
  8
200
  6
AUSGEZOGEN
 10
2398.0000
 20
 890.0000
 11
   0.0000
 21
 890.0000
  0
LINE
  8
200
  6
AUSGEZOGEN
 10
   0.0000
 20
 900.0000
 11
   0.0000
 21
 890.0000
  0
LINE
  8
200
  6
AUSGEZOGEN
 10
2398.0000
 20
 900.0000
 11
   0.0000
 21
 900.0000
  0
LINE
  8
200
  6
AUSGEZOGEN
 10
2398.0000
 20
 890.0000
 11
2398.0000
 21
 900.0000
  0
TEXT
  8
400
 10
2997.5000
 20
 780.0000
 40
  45.0000
  1
EZ: 230V 50Hz, Kabellänge 2,5m 0,2kW
 50
   0.0000
 41
   0.6000
  7
STANDARD
  0
TEXT
  8
440
 10
2997.5000
 20
 660.0000
 40
  45.0000
  1
KL: DN8 Saugleitung
 50
   0.0000
 41
   0.6000
  7
STANDARD
  0
TEXT
  8
440
 10
2997.5000
 20
 540.0000
 40
  45.0000
  1
KL: DN6 Flüssigkeitsleitung
 50
   0.0000
 41
   0.6000
  7
STANDARD
  0
ATTDEF
  8
550
 10
10.0
 20
100.0
 30
0.0
 40
30
  1
CCO-GTO540R91
  2
CCO-GTO540R91V
  3
HKI-Nummer
 70
1
  0
TEXT
  8
510
 10
10.0
 20
-45.0
 30
0.0
 40
30
  1
CCO-GTO540R91
 50
0.0
 41
1.0
  7
STANDARD
  0
ENDSEC
  0
EOF
