  0
SECTION
  2
HEADER
  9
$ACADVER
  1
AC1015
  9
$ACADMAINTVER
 70
     6
  9
$DWGCODEPAGE
  3
ANSI_1252
  9
$INSBASE
 10
0.0
 20
0.0
 30
0.0
  9
$EXTMIN
 10
0.0
 20
0.0
 30
0.0
  9
$EXTMAX
 10
2100.0
 20
2970.0
 30
0.0
  9
$LIMMIN
 10
0.0
 20
0.0
  9
$LIMMAX
 10
2100.0
 20
2970.0
  9
$ORTHOMODE
 70
     0
  9
$REGENMODE
 70
     1
  9
$FILLMODE
 70
     1
  9
$QTEXTMODE
 70
     0
  9
$MIRRTEXT
 70
     1
  9
$LTSCALE
 40
10.0
  9
$ATTMODE
 70
     1
  9
$TEXTSIZE
 40
35.0
  9
$TRACEWID
 40
1.0
  9
$TEXTSTYLE
  7
Standard
  9
$CLAYER
  8
0
  9
$CELTYPE
  6
ByLayer
  9
$CECOLOR
 62
   256
  9
$CELTSCALE
 40
1.0
  9
$DISPSILH
 70
     0
  9
$DIMSCALE
 40
1.0
  9
$DIMASZ
 40
33.02
  9
$DIMEXO
 40
0.0
  9
$DIMDLI
 40
3.75
  9
$DIMRND
 40
0.0
  9
$DIMDLE
 40
0.0
  9
$DIMEXE
 40
5.0
  9
$DIMTP
 40
0.0
  9
$DIMTM
 40
0.0
  9
$DIMTXT
 40
35.0
  9
$DIMCEN
 40
2.5
  9
$DIMTSZ
 40
0.0
  9
$DIMTOL
 70
     0
  9
$DIMLIM
 70
     0
  9
$DIMTIH
 70
     1
  9
$DIMTOH
 70
     1
  9
$DIMSE1
 70
     0
  9
$DIMSE2
 70
     0
  9
$DIMTAD
 70
     1
  9
$DIMZIN
 70
     0
  9
$DIMBLK
  1

  9
$DIMASO
 70
     1
  9
$DIMSHO
 70
     1
  9
$DIMPOST
  1

  9
$DIMAPOST
  1

  9
$DIMALT
 70
     0
  9
$DIMALTD
 70
     3
  9
$DIMALTF
 40
0.0393700787
  9
$DIMLFAC
 40
1.0
  9
$DIMTOFL
 70
     1
  9
$DIMTVP
 40
0.0
  9
$DIMTIX
 70
     0
  9
$DIMSOXD
 70
     0
  9
$DIMSAH
 70
     0
  9
$DIMBLK1
  1

  9
$DIMBLK2
  1

  9
$DIMSTYLE
  2
ISO-25
  9
$DIMCLRD
 70
     0
  9
$DIMCLRE
 70
     0
  9
$DIMCLRT
 70
     0
  9
$DIMTFAC
 40
1.0
  9
$DIMGAP
 40
15.24
  9
$DIMJUST
 70
     0
  9
$DIMSD1
 70
     0
  9
$DIMSD2
 70
     0
  9
$DIMTOLJ
 70
     0
  9
$DIMTZIN
 70
     0
  9
$DIMALTZ
 70
     0
  9
$DIMALTTZ
 70
     0
  9
$DIMUPT
 70
     0
  9
$DIMDEC
 70
     1
  9
$DIMTDEC
 70
     1
  9
$DIMALTU
 70
     2
  9
$DIMALTTD
 70
     3
  9
$DIMTXSTY
  7
Standard
  9
$DIMAUNIT
 70
     0
  9
$DIMADEC
 70
     0
  9
$DIMALTRND
 40
0.0
  9
$DIMAZIN
 70
     0
  9
$DIMDSEP
 70
    44
  9
$DIMATFIT
 70
     3
  9
$DIMFRAC
 70
     0
  9
$DIMLDRBLK
  1

  9
$DIMLUNIT
 70
     2
  9
$DIMLWD
 70
    -2
  9
$DIMLWE
 70
    -2
  9
$DIMTMOVE
 70
     0
  9
$LUNITS
 70
     2
  9
$LUPREC
 70
     2
  9
$SKETCHINC
 40
1.0
  9
$FILLETRAD
 40
10.0
  9
$AUNITS
 70
     0
  9
$AUPREC
 70
     0
  9
$MENU
  1
.
  9
$ELEVATION
 40
0.0
  9
$PELEVATION
 40
0.0
  9
$THICKNESS
 40
0.0
  9
$LIMCHECK
 70
     0
  9
$CHAMFERA
 40
0.0
  9
$CHAMFERB
 40
0.0
  9
$CHAMFERC
 40
0.0
  9
$CHAMFERD
 40
0.0
  9
$SKPOLY
 70
     0
  9
$TDCREATE
 40
2460035.353659769
  9
$TDUCREATE
 40
2460035.270326435
  9
$TDUPDATE
 40
2460035.353660891
  9
$TDUUPDATE
 40
2460035.270327558
  9
$TDINDWG
 40
0.0000000116
  9
$TDUSRTIMER
 40
0.0000000116
  9
$USRTIMER
 70
     1
  9
$ANGBASE
 50
0.0
  9
$ANGDIR
 70
     0
  9
$PDMODE
 70
     0
  9
$PDSIZE
 40
-1.0
  9
$PLINEWID
 40
0.0
  9
$SPLFRAME
 70
     0
  9
$SPLINETYPE
 70
     6
  9
$SPLINESEGS
 70
     8
  9
$HANDSEED
  5
7E5
  9
$SURFTAB1
 70
     6
  9
$SURFTAB2
 70
     6
  9
$SURFTYPE
 70
     6
  9
$SURFU
 70
     6
  9
$SURFV
 70
     6
  9
$UCSBASE
  2

  9
$UCSNAME
  2

  9
$UCSORG
 10
0.0
 20
0.0
 30
0.0
  9
$UCSXDIR
 10
1.0
 20
0.0
 30
0.0
  9
$UCSYDIR
 10
0.0
 20
1.0
 30
0.0
  9
$UCSORTHOREF
  2

  9
$UCSORTHOVIEW
 70
     0
  9
$UCSORGTOP
 10
0.0
 20
0.0
 30
0.0
  9
$UCSORGBOTTOM
 10
0.0
 20
0.0
 30
0.0
  9
$UCSORGLEFT
 10
0.0
 20
0.0
 30
0.0
  9
$UCSORGRIGHT
 10
0.0
 20
0.0
 30
0.0
  9
$UCSORGFRONT
 10
0.0
 20
0.0
 30
0.0
  9
$UCSORGBACK
 10
0.0
 20
0.0
 30
0.0
  9
$PUCSBASE
  2

  9
$PUCSNAME
  2

  9
$PUCSORG
 10
0.0
 20
0.0
 30
0.0
  9
$PUCSXDIR
 10
1.0
 20
0.0
 30
0.0
  9
$PUCSYDIR
 10
0.0
 20
1.0
 30
0.0
  9
$PUCSORTHOREF
  2

  9
$PUCSORTHOVIEW
 70
     0
  9
$PUCSORGTOP
 10
0.0
 20
0.0
 30
0.0
  9
$PUCSORGBOTTOM
 10
0.0
 20
0.0
 30
0.0
  9
$PUCSORGLEFT
 10
0.0
 20
0.0
 30
0.0
  9
$PUCSORGRIGHT
 10
0.0
 20
0.0
 30
0.0
  9
$PUCSORGFRONT
 10
0.0
 20
0.0
 30
0.0
  9
$PUCSORGBACK
 10
0.0
 20
0.0
 30
0.0
  9
$USERI1
 70
     0
  9
$USERI2
 70
     0
  9
$USERI3
 70
     0
  9
$USERI4
 70
     0
  9
$USERI5
 70
     0
  9
$USERR1
 40
0.0
  9
$USERR2
 40
0.0
  9
$USERR3
 40
0.0
  9
$USERR4
 40
0.0
  9
$USERR5
 40
0.0
  9
$WORLDVIEW
 70
     1
  9
$SHADEDGE
 70
     3
  9
$SHADEDIF
 70
    70
  9
$TILEMODE
 70
     1
  9
$MAXACTVP
 70
    64
  9
$PINSBASE
 10
0.0
 20
0.0
 30
0.0
  9
$PLIMCHECK
 70
     0
  9
$PEXTMIN
 10
1.0000000000E+20
 20
1.0000000000E+20
 30
1.0000000000E+20
  9
$PEXTMAX
 10
-1.0000000000E+20
 20
-1.0000000000E+20
 30
-1.0000000000E+20
  9
$PLIMMIN
 10
0.0
 20
0.0
  9
$PLIMMAX
 10
420.0
 20
297.0
  9
$UNITMODE
 70
     0
  9
$VISRETAIN
 70
     1
  9
$PLINEGEN
 70
     0
  9
$PSLTSCALE
 70
     1
  9
$TREEDEPTH
 70
  3020
  9
$CMLSTYLE
  2
Standard
  9
$CMLJUST
 70
     0
  9
$CMLSCALE
 40
20.0
  9
$PROXYGRAPHICS
 70
     1
  9
$MEASUREMENT
 70
     1
  9
$CELWEIGHT
370
    -1
  9
$ENDCAPS
280
     0
  9
$JOINSTYLE
280
     0
  9
$LWDISPLAY
290
     1
  9
$INSUNITS
 70
     4
  9
$HYPERLINKBASE
  1

  9
$STYLESHEET
  1

  9
$XEDIT
290
     1
  9
$CEPSNTYPE
380
     0
  9
$PSTYLEMODE
290
     1
  9
$FINGERPRINTGUID
  2
{2476B131-2285-468F-BC88-D9D809D78BEE}
  9
$VERSIONGUID
  2
{FAEB1C32-E019-11D5-929B-00C0DF256EC4}
  9
$EXTNAMES
290
     1
  9
$PSVPSCALE
 40
0.0
  9
$OLESTARTUP
290
     0
  0
ENDSEC
  0
SECTION
  2
CLASSES
  0
CLASS
  1
ACDBDICTIONARYWDFLT
  2
AcDbDictionaryWithDefault
  3
ObjectDBX Classes
 90
        0
280
     0
281
     0
  0
CLASS
  1
VISUALSTYLE
  2
AcDbVisualStyle
  3
ObjectDBX Classes
 90
     4095
280
     0
281
     0
  0
CLASS
  1
MATERIAL
  2
AcDbMaterial
  3
ObjectDBX Classes
 90
     1153
280
     0
281
     0
  0
CLASS
  1
SCALE
  2
AcDbScale
  3
ObjectDBX Classes
 90
     1153
280
     0
281
     0
  0
CLASS
  1
TABLESTYLE
  2
AcDbTableStyle
  3
ObjectDBX Classes
 90
     4095
280
     0
281
     0
  0
CLASS
  1
MLEADERSTYLE
  2
AcDbMLeaderStyle
  3
ACDB_MLEADERSTYLE_CLASS
 90
     4095
280
     0
281
     0
  0
CLASS
  1
SUN
  2
AcDbSun
  3
SCENEOE
 90
     1153
280
     0
281
     0
  0
CLASS
  1
ACDBPLACEHOLDER
  2
AcDbPlaceHolder
  3
ObjectDBX Classes
 90
        0
280
     0
281
     0
  0
CLASS
  1
LAYOUT
  2
AcDbLayout
  3
ObjectDBX Classes
 90
        0
280
     0
281
     0
  0
ENDSEC
  0
SECTION
  2
TABLES
  0
TABLE
  2
VPORT
  5
8
330
0
100
AcDbSymbolTable
 70
     1
  0
VPORT
  5
29
330
8
100
AcDbSymbolTableRecord
100
AcDbViewportTableRecord
  2
*Active
 70
     0
 10
0.0
 20
0.0
 11
1.0
 21
1.0
 12
1050.0
 22
1485.0
 13
0.0
 23
0.0
 14
10.0
 24
10.0
 15
10.0
 25
10.0
 16
0.0
 26
0.0
 36
1.0
 17
0.0
 27
0.0
 37
0.0
 40
2970.0
 41
0.7070707071
 42
50.0
 43
0.0
 44
0.0
 50
0.0
 51
0.0
 71
     0
 72
  2000
 73
     1
 74
     3
 75
     0
 76
     0
 77
     0
 78
     0
281
     0
 65
     1
110
0.0
120
0.0
130
0.0
111
1.0
121
0.0
131
0.0
112
0.0
122
1.0
132
0.0
 79
     0
146
0.0
  0
ENDTAB
  0
TABLE
  2
LTYPE
  5
5
330
0
100
AcDbSymbolTable
 70
     6
  0
LTYPE
  5
14
330
5
100
AcDbSymbolTableRecord
100
AcDbLinetypeTableRecord
  2
ByBlock
 70
     0
  3

 72
    65
 73
     0
 40
0.0
  0
LTYPE
  5
15
330
5
100
AcDbSymbolTableRecord
100
AcDbLinetypeTableRecord
  2
ByLayer
 70
     0
  3

 72
    65
 73
     0
 40
0.0
  0
LTYPE
  5
16
330
5
100
AcDbSymbolTableRecord
100
AcDbLinetypeTableRecord
  2
Continuous
 70
     0
  3
Solid line
 72
    65
 73
     0
 40
0.0
  0
LTYPE
  5
6E
330
5
100
AcDbSymbolTableRecord
100
AcDbLinetypeTableRecord
  2
HIDDEN
 70
     0
  3
Hidden __ __ __ __ __ __ __ __ __ __ __ __ __ __
 72
    65
 73
     2
 40
1.905
 49
1.27
 74
     0
 49
-0.635
 74
     0
  0
LTYPE
  5
6F
330
5
100
AcDbSymbolTableRecord
100
AcDbLinetypeTableRecord
  2
PHANTOM
 70
     0
  3
Phantom ______  __  __  ______  __  __  ______
 72
    65
 73
     6
 40
12.7
 49
6.35
 74
     0
 49
-1.27
 74
     0
 49
1.27
 74
     0
 49
-1.27
 74
     0
 49
1.27
 74
     0
 49
-1.27
 74
     0
  0
LTYPE
  5
70
330
5
100
AcDbSymbolTableRecord
100
AcDbLinetypeTableRecord
  2
CENTER
 70
     0
  3
Center ____ _ ____ _ ____ _ ____ _ ____ _ ____
 72
    65
 73
     4
 40
10.16
 49
6.35
 74
     0
 49
-1.27
 74
     0
 49
1.27
 74
     0
 49
-1.27
 74
     0
  0
LTYPE
  5
71
330
5
100
AcDbSymbolTableRecord
100
AcDbLinetypeTableRecord
  2
CENTERX2
 70
     0
  3
Center (2x) ________  __  ________  __  _____
 72
    65
 73
     4
 40
20.32
 49
12.7
 74
     0
 49
-2.54
 74
     0
 49
2.54
 74
     0
 49
-2.54
 74
     0
  0
LTYPE
  5
72
330
5
100
AcDbSymbolTableRecord
100
AcDbLinetypeTableRecord
  2
DOT2
 70
     0
  3
Dot (.5x) ........................................
 72
    65
 73
     2
 40
0.635
 49
0.0
 74
     0
 49
-0.635
 74
     0
  0
ENDTAB
  0
TABLE
  2
LAYER
  5
2
330
0
100
AcDbSymbolTable
 70
    11
  0
LAYER
  5
10
330
2
100
AcDbSymbolTableRecord
100
AcDbLayerTableRecord
  2
0
 70
     0
 62
     7
  6
Continuous
370
    -3
390
F
  0
LAYER
  5
73
330
2
100
AcDbSymbolTableRecord
100
AcDbLayerTableRecord
  2
BEMAßUNG
 70
     0
 62
     7
  6
Continuous
370
    -1
390
F
  0
LAYER
  5
74
330
2
100
AcDbSymbolTableRecord
100
AcDbLayerTableRecord
  2
KONTUR
 70
     0
 62
     2
  6
Continuous
370
    -1
390
F
  0
LAYER
  5
75
330
2
100
AcDbSymbolTableRecord
100
AcDbLayerTableRecord
  2
MITTELLINIE
 70
     0
 62
     3
  6
CENTERX2
370
    -3
390
F
  0
LAYER
  5
76
330
2
100
AcDbSymbolTableRecord
100
AcDbLayerTableRecord
  2
RAHMEN
 70
     0
 62
     7
  6
Continuous
370
    -1
390
F
  0
LAYER
  5
77
330
2
100
AcDbSymbolTableRecord
100
AcDbLayerTableRecord
  2
SCHNITTLINIE
 70
     0
 62
     2
  6
CENTERX2
370
    -3
390
F
  0
LAYER
  5
78
330
2
100
AcDbSymbolTableRecord
100
AcDbLayerTableRecord
  2
SCHRAFFUR
 70
     0
 62
     4
  6
Continuous
370
    -1
390
F
  0
LAYER
  5
79
330
2
100
AcDbSymbolTableRecord
100
AcDbLayerTableRecord
  2
TEXT
 70
     0
 62
     7
  6
Continuous
370
    -1
390
F
  0
LAYER
  5
7A
330
2
100
AcDbSymbolTableRecord
100
AcDbLayerTableRecord
  2
VERDECKT
 70
     0
 62
     3
  6
HIDDEN
370
    -3
390
F
  0
LAYER
  5
7B
330
2
100
AcDbSymbolTableRecord
100
AcDbLayerTableRecord
  2
KANTLINIE
 70
     0
 62
     3
  6
CENTERX2
370
    -3
390
F
  0
LAYER
  5
7C
330
2
100
AcDbSymbolTableRecord
100
AcDbLayerTableRecord
  2
PHANTOM
 70
     0
 62
   200
  6
CENTERX2
370
    -3
390
F
  0
ENDTAB
  0
TABLE
  2
STYLE
  5
3
330
0
100
AcDbSymbolTable
 70
     3
  0
STYLE
  5
11
330
3
100
AcDbSymbolTableRecord
100
AcDbTextStyleTableRecord
  2
Standard
 70
     0
 40
0.0
 41
1.0
 50
0.0
 71
     0
 42
35.0
  3
txt
  4

  0
STYLE
  5
7C9
330
3
100
AcDbSymbolTableRecord
100
AcDbTextStyleTableRecord
  2
SLDTEXTSTYLE0
 70
     0
 40
0.0
 41
0.6759259259
 50
0.0
 71
     0
 42
35.0
  3
TXT
  4

  0
STYLE
  5
7CB
330
3
100
AcDbSymbolTableRecord
100
AcDbTextStyleTableRecord
  2
SLDTEXTSTYLE1
 70
     0
 40
0.0
 41
0.75
 50
0.0
 71
     0
 42
35.0
  3
TXT
  4

  0
ENDTAB
  0
TABLE
  2
VIEW
  5
6
330
0
100
AcDbSymbolTable
 70
     0
  0
ENDTAB
  0
TABLE
  2
UCS
  5
7
330
0
100
AcDbSymbolTable
 70
     0
  0
ENDTAB
  0
TABLE
  2
APPID
  5
9
330
0
100
AcDbSymbolTable
 70
     1
  0
APPID
  5
12
330
9
100
AcDbSymbolTableRecord
100
AcDbRegAppTableRecord
  2
ACAD
 70
     0
  0
ENDTAB
  0
TABLE
  2
DIMSTYLE
  5
A
330
0
100
AcDbSymbolTable
 70
     2
100
AcDbDimStyleTable
  0
DIMSTYLE
105
27
330
A
100
AcDbSymbolTableRecord
100
AcDbDimStyleTableRecord
  2
ISO-25
 70
     0
 41
2.5
 42
0.625
 43
3.75
 44
1.25
 73
     0
 74
     0
 77
     1
 78
     8
140
2.5
141
2.5
143
0.0393700787
147
0.625
171
     3
172
     1
178
     0
271
     2
272
     2
274
     3
278
    44
283
     0
284
     8
340
11
  0
DIMSTYLE
105
7CE
330
A
100
AcDbSymbolTableRecord
100
AcDbDimStyleTableRecord
  2
SLDDIMSTYLE0
 70
     0
 41
33.02
 44
0.0
 45
0.000000001
146
33.02
147
0.0
173
     1
178
     0
271
     0
272
     0
276
     2
340
11
  0
ENDTAB
  0
TABLE
  2
BLOCK_RECORD
  5
1
330
0
100
AcDbSymbolTable
 70
     5
  0
BLOCK_RECORD
  5
1F
330
1
100
AcDbSymbolTableRecord
100
AcDbBlockTableRecord
  2
*Model_Space
340
22
  0
BLOCK_RECORD
  5
1B
330
1
100
AcDbSymbolTableRecord
100
AcDbBlockTableRecord
  2
*Paper_Space
340
1E
  0
BLOCK_RECORD
  5
23
330
1
100
AcDbSymbolTableRecord
100
AcDbBlockTableRecord
  2
*Paper_Space0
340
26
  0
BLOCK_RECORD
  5
7C5
330
1
100
AcDbSymbolTableRecord
100
AcDbBlockTableRecord
  2
SW_NOTE_0
340
0
102
{BLKREFS
331
7CD
102
}
  0
BLOCK_RECORD
  5
7D0
330
1
100
AcDbSymbolTableRecord
100
AcDbBlockTableRecord
  2
SW_NOTE_1
340
0
102
{BLKREFS
331
7D5
102
}
  0
BLOCK_RECORD
  5
7D6
330
1
100
AcDbSymbolTableRecord
100
AcDbBlockTableRecord
  2
SW_NOTE_2
340
0
102
{BLKREFS
331
7DB
102
}
  0
BLOCK_RECORD
  5
7DD
330
1
100
AcDbSymbolTableRecord
100
AcDbBlockTableRecord
  2
SW_NOTE_3
340
0
102
{BLKREFS
331
7E3
102
}
  0
ENDTAB
  0
ENDSEC
  0
SECTION
  2
BLOCKS
  0
BLOCK
  5
20
330
1F
100
AcDbEntity
  8
0
100
AcDbBlockBegin
  2
*Model_Space
 70
     0
 10
0.0
 20
0.0
 30
0.0
  3
*Model_Space
  1

  0
ENDBLK
  5
21
330
1F
100
AcDbEntity
  8
0
100
AcDbBlockEnd
  0
BLOCK
  5
1C
330
1B
100
AcDbEntity
 67
     1
  8
0
100
AcDbBlockBegin
  2
*Paper_Space
 70
     0
 10
0.0
 20
0.0
 30
0.0
  3
*Paper_Space
  1

  0
ENDBLK
  5
1D
330
1B
100
AcDbEntity
 67
     1
  8
0
100
AcDbBlockEnd
  0
BLOCK
  5
24
330
23
100
AcDbEntity
  8
0
100
AcDbBlockBegin
  2
*Paper_Space0
 70
     0
 10
0.0
 20
0.0
 30
0.0
  3
*Paper_Space0
  1

  0
ENDBLK
  5
25
330
23
100
AcDbEntity
  8
0
100
AcDbBlockEnd
  0
BLOCK
  5
7C6
330
7C5
100
AcDbEntity
  8
0
100
AcDbBlockBegin
  2
SW_NOTE_0
 70
     0
 10
0.0
 20
0.0
 30
0.0
  3
SW_NOTE_0
  1

  0
LINE
  5
7C8
330
7C5
100
AcDbEntity
  8
RAHMEN
 62
     0
100
AcDbLine
 10
711.6405512071
 20
0.0
 30
0.0
 11
0.0
 21
0.0
 31
0.0
  0
MTEXT
  5
7CA
330
7C5
100
AcDbEntity
  8
RAHMEN
 62
     0
100
AcDbMText
 10
4.8079011815
 20
90.9286547417
 30
0.0
 40
35.0
 41
0.0
 71
     1
 72
     1
  1
EZ: 230 V / 50 Hz / 0,28 kW
  7
SLDTEXTSTYLE0
 73
     1
 44
1.0
  0
MTEXT
  5
7CC
330
7C5
100
AcDbEntity
  8
RAHMEN
 62
     0
100
AcDbMText
 10
83.5579011815
 20
45.6717094371
 30
0.0
 40
35.0
 41
0.0
 71
     1
 72
     1
  1
Kabellänge 3 m (OKFF 1800)
  7
SLDTEXTSTYLE1
 73
     1
 44
1.0
  0
ENDBLK
  5
7C7
330
7C5
100
AcDbEntity
  8
0
100
AcDbBlockEnd
  0
BLOCK
  5
7D1
330
7D0
100
AcDbEntity
  8
0
100
AcDbBlockBegin
  2
SW_NOTE_1
 70
     0
 10
0.0
 20
0.0
 30
0.0
  3
SW_NOTE_1
  1

  0
MTEXT
  5
7D3
330
7D0
100
AcDbEntity
  8
RAHMEN
 62
     0
100
AcDbMText
 10
0.0
 20
45.117370892
 30
0.0
 40
35.0
 41
0.0
 71
     1
 72
     1
  1
HKON057-02
  7
SLDTEXTSTYLE1
 73
     1
 44
1.0
  0
MTEXT
  5
7D4
330
7D0
100
AcDbEntity
  8
RAHMEN
 62
     0
100
AcDbMText
 10
0.0
 20
-0.1395744126
 30
0.0
 40
35.0
 41
0.0
 71
     1
 72
     1
  1
HKONZ57-02
  7
SLDTEXTSTYLE1
 73
     1
 44
1.0
  0
ENDBLK
  5
7D2
330
7D0
100
AcDbEntity
  8
0
100
AcDbBlockEnd
  0
BLOCK
  5
7D7
330
7D6
100
AcDbEntity
  8
0
100
AcDbBlockBegin
  2
SW_NOTE_2
 70
     0
 10
0.0
 20
0.0
 30
0.0
  3
SW_NOTE_2
  1

  0
LINE
  5
7D9
330
7D6
100
AcDbEntity
  8
RAHMEN
 62
     0
100
AcDbLine
 10
938.9461423136
 20
0.0
 30
0.0
 11
0.0
 21
0.0
 31
0.0
  0
MTEXT
  5
7DA
330
7D6
100
AcDbEntity
  8
RAHMEN
 62
     0
100
AcDbMText
 10
4.6806214666
 20
45.917416559
 30
0.0
 40
35.0
 41
0.0
 71
     1
 72
     1
  1
A: Tauwasserabfluss Ø 12 mm (OKFF 1719)
  7
SLDTEXTSTYLE1
 73
     1
 44
1.0
  0
ENDBLK
  5
7D8
330
7D6
100
AcDbEntity
  8
0
100
AcDbBlockEnd
  0
BLOCK
  5
7DE
330
7DD
100
AcDbEntity
  8
0
100
AcDbBlockBegin
  2
SW_NOTE_3
 70
     0
 10
0.0
 20
0.0
 30
0.0
  3
SW_NOTE_3
  1

  0
LINE
  5
7E0
330
7DD
100
AcDbEntity
  8
RAHMEN
 62
     0
100
AcDbLine
 10
868.6545337416
 20
0.0
 30
0.0
 11
0.0
 21
0.0
 31
0.0
  0
MTEXT
  5
7E1
330
7DD
100
AcDbEntity
  8
RAHMEN
 62
     0
100
AcDbMText
 10
4.6806214666
 20
90.5975360369
 30
0.0
 40
35.0
 41
0.0
 71
     1
 72
     1
  1
KL: Saugleitung Ø 8 mm (OKFF 1800)
  7
SLDTEXTSTYLE1
 73
     1
 44
1.0
  0
MTEXT
  5
7E2
330
7DD
100
AcDbEntity
  8
RAHMEN
 62
     0
100
AcDbMText
 10
4.6806214666
 20
45.3405907323
 30
0.0
 40
35.0
 41
0.0
 71
     1
 72
     1
  1
KL: Einspritzleitung Ø 8 mm (OKFF 1800)
  7
SLDTEXTSTYLE1
 73
     1
 44
1.0
  0
ENDBLK
  5
7DF
330
7DD
100
AcDbEntity
  8
0
100
AcDbBlockEnd
  0
ENDSEC
  0
SECTION
  2
ENTITIES
  0
LINE
  5
7D
330
1F
100
AcDbEntity
  8
KONTUR
100
AcDbLine
 10
274.5839174212
 20
2223.1813947811
 30
0.0
 11
274.5839174212
 21
2223.8813947811
 31
0.0
  0
LINE
  5
7E
330
1F
100
AcDbEntity
  8
KONTUR
100
AcDbLine
 10
267.0839174212
 20
2223.8813947811
 30
0.0
 11
267.0839174212
 21
2223.1813947811
 31
0.0
  0
ARC
  5
7F
330
1F
100
AcDbEntity
  8
KONTUR
100
AcDbCircle
 10
273.0839174212
 20
2222.8751447811
 30
0.0
 40
1.806249999999696
100
AcDbArc
 50
33.8550261283
 51
90.0
  0
ARC
  5
80
330
1F
100
AcDbEntity
  8
KONTUR
100
AcDbCircle
 10
268.5839174212
 20
2222.8751447811
 30
0.0
 40
1.806249999999696
100
AcDbArc
 50
90.0
 51
146.1449738717
  0
LINE
  5
81
330
1F
100
AcDbEntity
  8
KONTUR
100
AcDbLine
 10
910.5839174212
 20
2223.1813947811
 30
0.0
 11
910.5839174212
 21
2223.8813947811
 31
0.0
  0
LINE
  5
82
330
1F
100
AcDbEntity
  8
KONTUR
100
AcDbLine
 10
903.0839174212
 20
2223.8813947811
 30
0.0
 11
903.0839174212
 21
2223.1813947811
 31
0.0
  0
ARC
  5
83
330
1F
100
AcDbEntity
  8
KONTUR
100
AcDbCircle
 10
909.0839174212
 20
2222.8751447811
 30
0.0
 40
1.806249999999636
100
AcDbArc
 50
33.8550261283
 51
90.0
  0
ARC
  5
84
330
1F
100
AcDbEntity
  8
KONTUR
100
AcDbCircle
 10
904.5839174212
 20
2222.8751447811
 30
0.0
 40
1.806249999999636
100
AcDbArc
 50
90.0
 51
146.1449738717
  0
ARC
  5
85
330
1F
100
AcDbEntity
  8
KONTUR
100
AcDbCircle
 10
879.0839174212
 20
2222.8751447811
 30
0.0
 40
1.806249999999696
100
AcDbArc
 50
33.8550261283
 51
90.0
  0
ARC
  5
86
330
1F
100
AcDbEntity
  8
KONTUR
100
AcDbCircle
 10
874.5839174212
 20
2222.8751447811
 30
0.0
 40
1.806249999999696
100
AcDbArc
 50
90.0
 51
146.1449738717
  0
LINE
  5
87
330
1F
100
AcDbEntity
  8
KONTUR
100
AcDbLine
 10
880.5839174212
 20
2223.1813947811
 30
0.0
 11
880.5839174212
 21
2223.8813947811
 31
0.0
  0
LINE
  5
88
330
1F
100
AcDbEntity
  8
KONTUR
100
AcDbLine
 10
873.0839174212
 20
2223.8813947811
 30
0.0
 11
873.0839174212
 21
2223.1813947811
 31
0.0
  0
LINE
  5
89
330
1F
100
AcDbEntity
  8
KONTUR
100
AcDbLine
 10
244.5839174212
 20
2223.1813947811
 30
0.0
 11
244.5839174212
 21
2223.8813947811
 31
0.0
  0
LINE
  5
8A
330
1F
100
AcDbEntity
  8
KONTUR
100
AcDbLine
 10
237.0839174212
 20
2223.8813947811
 30
0.0
 11
237.0839174212
 21
2223.1813947811
 31
0.0
  0
ARC
  5
8B
330
1F
100
AcDbEntity
  8
KONTUR
100
AcDbCircle
 10
243.0839174212
 20
2222.8751447811
 30
0.0
 40
1.806249999999743
100
AcDbArc
 50
33.8550261283
 51
90.0
  0
ARC
  5
8C
330
1F
100
AcDbEntity
  8
KONTUR
100
AcDbCircle
 10
238.5839174212
 20
2222.8751447811
 30
0.0
 40
1.806249999999672
100
AcDbArc
 50
90.0
 51
146.1449738717
  0
LINE
  5
8D
330
1F
100
AcDbEntity
  8
KONTUR
100
AcDbLine
 10
911.8339174212
 20
2227.4813947811
 30
0.0
 11
902.8339174212
 21
2227.4813947811
 31
0.0
  0
LINE
  5
8E
330
1F
100
AcDbEntity
  8
KONTUR
100
AcDbLine
 10
880.8339174212
 20
2227.4813947811
 30
0.0
 11
871.8339174212
 21
2227.4813947811
 31
0.0
  0
LINE
  5
8F
330
1F
100
AcDbEntity
  8
KONTUR
100
AcDbLine
 10
275.8339174212
 20
2227.4813947811
 30
0.0
 11
266.8339174212
 21
2227.4813947811
 31
0.0
  0
LINE
  5
90
330
1F
100
AcDbEntity
  8
KONTUR
100
AcDbLine
 10
244.8339174212
 20
2227.4813947811
 30
0.0
 11
235.8339174212
 21
2227.4813947811
 31
0.0
  0
LINE
  5
91
330
1F
100
AcDbEntity
  8
KONTUR
100
AcDbLine
 10
900.8339174212
 20
2227.4813947811
 30
0.0
 11
882.8339174212
 21
2227.4813947811
 31
0.0
  0
LINE
  5
92
330
1F
100
AcDbEntity
  8
KONTUR
100
AcDbLine
 10
264.8339174212
 20
2227.4813947811
 30
0.0
 11
246.8339174212
 21
2227.4813947811
 31
0.0
  0
LINE
  5
93
330
1F
100
AcDbEntity
  8
KONTUR
100
AcDbLine
 10
882.8339174212
 20
2227.4813947811
 30
0.0
 11
880.8339174212
 21
2227.4813947811
 31
0.0
  0
LINE
  5
94
330
1F
100
AcDbEntity
  8
KONTUR
100
AcDbLine
 10
246.8339174212
 20
2227.4813947811
 30
0.0
 11
244.8339174212
 21
2227.4813947811
 31
0.0
  0
LINE
  5
95
330
1F
100
AcDbEntity
  8
KONTUR
100
AcDbLine
 10
902.8339174212
 20
2227.4813947811
 30
0.0
 11
900.8339174212
 21
2227.4813947811
 31
0.0
  0
LINE
  5
96
330
1F
100
AcDbEntity
  8
KONTUR
100
AcDbLine
 10
266.8339174212
 20
2227.4813947811
 30
0.0
 11
264.8339174212
 21
2227.4813947811
 31
0.0
  0
LINE
  5
97
330
1F
100
AcDbEntity
  8
KONTUR
100
AcDbLine
 10
275.8339174212
 20
2222.7313947811
 30
0.0
 11
276.8339174212
 21
2222.7313947811
 31
0.0
  0
LINE
  5
98
330
1F
100
AcDbEntity
  8
KONTUR
100
AcDbLine
 10
276.8339174212
 20
2226.7313947811
 30
0.0
 11
275.8339174212
 21
2226.7313947811
 31
0.0
  0
ARC
  5
99
330
1F
100
AcDbEntity
  8
KONTUR
100
AcDbCircle
 10
276.8339174212
 20
2226.5313947811
 30
0.0
 40
0.2000000000002728
100
AcDbArc
 50
0.0
 51
90.0
  0
ARC
  5
9A
330
1F
100
AcDbEntity
  8
KONTUR
100
AcDbCircle
 10
276.8339174212
 20
2222.9313947811
 30
0.0
 40
0.1999999999999886
100
AcDbArc
 50
270.0
 51
0.0
  0
ARC
  5
9B
330
1F
100
AcDbEntity
  8
KONTUR
100
AcDbCircle
 10
912.8339174212
 20
2226.5313947811
 30
0.0
 40
0.2000000000000455
100
AcDbArc
 50
0.0
 51
90.0
  0
ARC
  5
9C
330
1F
100
AcDbEntity
  8
KONTUR
100
AcDbCircle
 10
912.8339174212
 20
2222.9313947811
 30
0.0
 40
0.2000000000000455
100
AcDbArc
 50
270.0
 51
0.0
  0
LINE
  5
9D
330
1F
100
AcDbEntity
  8
KONTUR
100
AcDbLine
 10
911.8339174212
 20
2222.7313947811
 30
0.0
 11
912.8339174212
 21
2222.7313947811
 31
0.0
  0
LINE
  5
9E
330
1F
100
AcDbEntity
  8
KONTUR
100
AcDbLine
 10
912.8339174212
 20
2226.7313947811
 30
0.0
 11
911.8339174212
 21
2226.7313947811
 31
0.0
  0
ARC
  5
9F
330
1F
100
AcDbEntity
  8
KONTUR
100
AcDbCircle
 10
870.8339174212
 20
2222.9313947811
 30
0.0
 40
0.2000000000000455
100
AcDbArc
 50
180.0
 51
270.0
  0
ARC
  5
A0
330
1F
100
AcDbEntity
  8
KONTUR
100
AcDbCircle
 10
870.8339174212
 20
2226.5313947811
 30
0.0
 40
0.2000000000000455
100
AcDbArc
 50
90.0
 51
180.0
  0
LINE
  5
A1
330
1F
100
AcDbEntity
  8
KONTUR
100
AcDbLine
 10
871.8339174212
 20
2226.7313947811
 30
0.0
 11
870.8339174212
 21
2226.7313947811
 31
0.0
  0
LINE
  5
A2
330
1F
100
AcDbEntity
  8
KONTUR
100
AcDbLine
 10
870.8339174212
 20
2222.7313947811
 30
0.0
 11
871.8339174212
 21
2222.7313947811
 31
0.0
  0
LINE
  5
A3
330
1F
100
AcDbEntity
  8
KONTUR
100
AcDbLine
 10
235.8339174212
 20
2226.7313947811
 30
0.0
 11
234.8339174212
 21
2226.7313947811
 31
0.0
  0
LINE
  5
A4
330
1F
100
AcDbEntity
  8
KONTUR
100
AcDbLine
 10
234.8339174212
 20
2222.7313947811
 30
0.0
 11
235.8339174212
 21
2222.7313947811
 31
0.0
  0
ARC
  5
A5
330
1F
100
AcDbEntity
  8
KONTUR
100
AcDbCircle
 10
234.8339174212
 20
2222.9313947811
 30
0.0
 40
0.1999999999999318
100
AcDbArc
 50
180.0
 51
270.0
  0
ARC
  5
A6
330
1F
100
AcDbEntity
  8
KONTUR
100
AcDbCircle
 10
234.8339174212
 20
2226.5313947811
 30
0.0
 40
0.2000000000002728
100
AcDbArc
 50
90.0
 51
180.0
  0
LINE
  5
A7
330
1F
100
AcDbEntity
  8
KONTUR
100
AcDbLine
 10
654.8339174212
 20
1850.6813947811
 30
0.0
 11
662.8339174212
 21
1850.6813947811
 31
0.0
  0
LINE
  5
A8
330
1F
100
AcDbEntity
  8
KONTUR
100
AcDbLine
 10
629.8339174212
 20
1849.3813947811
 30
0.0
 11
637.8339174212
 21
1849.3813947811
 31
0.0
  0
ARC
  5
A9
330
1F
100
AcDbEntity
  8
KONTUR
100
AcDbCircle
 10
445.6839174212
 20
1863.3813947811
 30
0.0
 40
1.500000000000227
100
AcDbArc
 50
180.0
 51
270.0
  0
ARC
  5
AA
330
1F
100
AcDbEntity
  8
KONTUR
100
AcDbCircle
 10
503.9839174212
 20
1863.3813947811
 30
0.0
 40
1.500000000000227
100
AcDbArc
 50
270.0
 51
0.0
  0
LINE
  5
AB
330
1F
100
AcDbEntity
  8
KONTUR
100
AcDbLine
 10
444.1839174212
 20
1863.8813947811
 30
0.0
 11
444.1839174212
 21
1863.3813947811
 31
0.0
  0
LINE
  5
AC
330
1F
100
AcDbEntity
  8
KONTUR
100
AcDbLine
 10
505.4839174212
 20
1863.3813947811
 30
0.0
 11
505.4839174212
 21
1863.8813947811
 31
0.0
  0
ARC
  5
AD
330
1F
100
AcDbEntity
  8
KONTUR
100
AcDbCircle
 10
887.0339174212
 20
1863.687238801
 30
0.0
 40
0.4500000000000455
100
AcDbArc
 50
154.4398928088
 51
180.0
  0
ARC
  5
AE
330
1F
100
AcDbEntity
  8
KONTUR
100
AcDbCircle
 10
895.6339174212
 20
1863.687238801
 30
0.0
 40
0.4499999999999339
100
AcDbArc
 50
0.0
 51
25.5601071912
  0
LINE
  5
AF
330
1F
100
AcDbEntity
  8
KONTUR
100
AcDbLine
 10
886.5839174212
 20
1863.687238801
 30
0.0
 11
886.5839174212
 21
1861.7813947811
 31
0.0
  0
LINE
  5
B0
330
1F
100
AcDbEntity
  8
KONTUR
100
AcDbLine
 10
896.0839174212
 20
1861.7813947811
 30
0.0
 11
896.0839174212
 21
1863.687238801
 31
0.0
  0
ARC
  5
B1
330
1F
100
AcDbEntity
  8
KONTUR
100
AcDbCircle
 10
895.6339174212
 20
363.2755507611
 30
0.0
 40
0.4499999999999318
100
AcDbArc
 50
304.7179055026
 51
0.0
  0
ARC
  5
B2
330
1F
100
AcDbEntity
  8
KONTUR
100
AcDbCircle
 10
887.0339174212
 20
363.2755507611
 30
0.0
 40
0.4500000000000455
100
AcDbArc
 50
180.0
 51
235.2820944974
  0
LINE
  5
B3
330
1F
100
AcDbEntity
  8
KONTUR
100
AcDbLine
 10
896.0839174212
 20
363.2755507611
 30
0.0
 11
896.0839174212
 21
365.181394781
 31
0.0
  0
LINE
  5
B4
330
1F
100
AcDbEntity
  8
KONTUR
100
AcDbLine
 10
886.5839174212
 20
365.181394781
 30
0.0
 11
886.5839174212
 21
363.2755507611
 31
0.0
  0
ARC
  5
B5
330
1F
100
AcDbEntity
  8
KONTUR
100
AcDbCircle
 10
891.3339174212
 20
369.481394781
 30
0.0
 40
8.000000000000044
100
AcDbArc
 50
277.4542197498
 51
304.7179055026
  0
ARC
  5
B6
330
1F
100
AcDbEntity
  8
KONTUR
100
AcDbCircle
 10
891.3339174212
 20
369.481394781
 30
0.0
 40
7.99999999999998
100
AcDbArc
 50
235.2820944974
 51
262.5457802502
  0
LINE
  5
B7
330
1F
100
AcDbEntity
  8
KONTUR
100
AcDbLine
 10
236.5839174212
 20
1104.9813947811
 30
0.0
 11
236.5839174212
 21
378.1813947811
 31
0.0
  0
LINE
  5
B8
330
1F
100
AcDbEntity
  8
KONTUR
100
AcDbLine
 10
910.4793754241
 20
378.8842082969
 30
0.0
 11
911.0738978421
 21
378.8842082885
 31
0.0
  0
LINE
  5
B9
330
1F
100
AcDbEntity
  8
KONTUR
100
AcDbLine
 10
910.3811037083
 20
378.1950433139
 30
0.0
 11
910.3811037002
 21
378.785952601
 31
0.0
  0
LINE
  5
BA
330
1F
100
AcDbEntity
  8
KONTUR
100
AcDbLine
 10
910.3811039053
 20
1104.3813947811
 30
0.0
 11
910.3811039137
 21
1104.9713752022
 31
0.0
  0
ARC
  5
BB
330
1F
100
AcDbEntity
  8
KONTUR
100
AcDbCircle
 10
573.8339174212
 20
452.1870765993
 30
0.0
 40
75.60568181818192
100
AcDbArc
 50
260.2144617714
 51
279.7855382286
  0
LINE
  5
BC
330
1F
100
AcDbEntity
  8
KONTUR
100
AcDbLine
 10
586.6839174212
 20
377.6813947811
 30
0.0
 11
586.6839174212
 21
378.1813947811
 31
0.0
  0
LINE
  5
BD
330
1F
100
AcDbEntity
  8
KONTUR
100
AcDbLine
 10
560.9839174212
 20
378.1813947811
 30
0.0
 11
560.9839174212
 21
377.6813947811
 31
0.0
  0
LINE
  5
BE
330
1F
100
AcDbEntity
  8
KONTUR
100
AcDbLine
 10
560.9839174212
 20
1849.2813947811
 30
0.0
 11
560.9839174212
 21
1848.7813947811
 31
0.0
  0
LINE
  5
BF
330
1F
100
AcDbEntity
  8
KONTUR
100
AcDbLine
 10
586.6839174212
 20
1848.7813947811
 30
0.0
 11
586.6839174212
 21
1849.2813947811
 31
0.0
  0
ARC
  5
C0
330
1F
100
AcDbEntity
  8
KONTUR
100
AcDbCircle
 10
573.8339174212
 20
1774.7757129629
 30
0.0
 40
75.60568181818176
100
AcDbArc
 50
80.2144617714
 51
99.7855382286
  0
LINE
  5
C1
330
1F
100
AcDbEntity
  8
KONTUR
100
AcDbLine
 10
886.3339174212
 20
1856.7813947811
 30
0.0
 11
886.3339174212
 21
1852.7813947811
 31
0.0
  0
LINE
  5
C2
330
1F
100
AcDbEntity
  8
KONTUR
100
AcDbLine
 10
896.3339174212
 20
1852.7813947811
 30
0.0
 11
896.3339174212
 21
1856.7813947811
 31
0.0
  0
LINE
  5
C3
330
1F
100
AcDbEntity
  8
KONTUR
100
AcDbLine
 10
896.3339174212
 20
370.1813947811
 30
0.0
 11
896.3339174212
 21
374.1813947811
 31
0.0
  0
LINE
  5
C4
330
1F
100
AcDbEntity
  8
KONTUR
100
AcDbLine
 10
886.3339174212
 20
374.1813947811
 30
0.0
 11
886.3339174212
 21
370.1813947811
 31
0.0
  0
LINE
  5
C5
330
1F
100
AcDbEntity
  8
KONTUR
100
AcDbLine
 10
870.6089174212
 20
1119.9813947811
 30
0.0
 11
870.6089174212
 21
1121.9813947811
 31
0.0
  0
LINE
  5
C6
330
1F
100
AcDbEntity
  8
KONTUR
100
AcDbLine
 10
860.8589174212
 20
1121.9813947811
 30
0.0
 11
860.8589174212
 21
1119.9813947811
 31
0.0
  0
ARC
  5
C7
330
1F
100
AcDbEntity
  8
KONTUR
100
AcDbCircle
 10
867.7339174212
 20
1121.9866031144
 30
0.0
 40
3.50520833333342
100
AcDbArc
 50
270.0
 51
325.1056231534
  0
ARC
  5
C8
330
1F
100
AcDbEntity
  8
KONTUR
100
AcDbCircle
 10
863.7339174212
 20
1121.9866031144
 30
0.0
 40
3.50520833333342
100
AcDbArc
 50
214.8943768466
 51
270.0
  0
LINE
  5
C9
330
1F
100
AcDbEntity
  8
KONTUR
100
AcDbLine
 10
845.0089174212
 20
1119.9813947811
 30
0.0
 11
845.0089174212
 21
1121.9813947811
 31
0.0
  0
LINE
  5
CA
330
1F
100
AcDbEntity
  8
KONTUR
100
AcDbLine
 10
835.2589174212
 20
1121.9813947811
 30
0.0
 11
835.2589174212
 21
1119.9813947811
 31
0.0
  0
ARC
  5
CB
330
1F
100
AcDbEntity
  8
KONTUR
100
AcDbCircle
 10
842.1339174212
 20
1121.9866031144
 30
0.0
 40
3.50520833333329
100
AcDbArc
 50
270.0
 51
325.1056231534
  0
ARC
  5
CC
330
1F
100
AcDbEntity
  8
KONTUR
100
AcDbCircle
 10
838.1339174212
 20
1121.9866031144
 30
0.0
 40
3.505208333333258
100
AcDbArc
 50
214.8943768466
 51
270.0
  0
LINE
  5
CD
330
1F
100
AcDbEntity
  8
KONTUR
100
AcDbLine
 10
835.2589174212
 20
1106.9813947811
 30
0.0
 11
835.2589174212
 21
1104.9813947811
 31
0.0
  0
LINE
  5
CE
330
1F
100
AcDbEntity
  8
KONTUR
100
AcDbLine
 10
845.0089174212
 20
1104.9813947811
 30
0.0
 11
845.0089174212
 21
1106.9813947811
 31
0.0
  0
ARC
  5
CF
330
1F
100
AcDbEntity
  8
KONTUR
100
AcDbCircle
 10
838.1339174212
 20
1104.9761864477
 30
0.0
 40
3.505208333333485
100
AcDbArc
 50
90.0
 51
145.1056231534
  0
ARC
  5
D0
330
1F
100
AcDbEntity
  8
KONTUR
100
AcDbCircle
 10
842.1339174212
 20
1104.9761864477
 30
0.0
 40
3.505208333333485
100
AcDbArc
 50
34.8943768466
 51
90.0
  0
ARC
  5
D1
330
1F
100
AcDbEntity
  8
KONTUR
100
AcDbCircle
 10
863.7339174212
 20
1104.9761864477
 30
0.0
 40
3.505208333333258
100
AcDbArc
 50
90.0
 51
145.1056231534
  0
ARC
  5
D2
330
1F
100
AcDbEntity
  8
KONTUR
100
AcDbCircle
 10
867.7339174212
 20
1104.9761864477
 30
0.0
 40
3.505208333333383
100
AcDbArc
 50
34.8943768466
 51
90.0
  0
LINE
  5
D3
330
1F
100
AcDbEntity
  8
KONTUR
100
AcDbLine
 10
860.8589174212
 20
1106.9813947811
 30
0.0
 11
860.8589174212
 21
1104.9813947811
 31
0.0
  0
LINE
  5
D4
330
1F
100
AcDbEntity
  8
KONTUR
100
AcDbLine
 10
870.6089174212
 20
1104.9813947811
 30
0.0
 11
870.6089174212
 21
1106.9813947811
 31
0.0
  0
LINE
  5
D5
330
1F
100
AcDbEntity
  8
KONTUR
100
AcDbLine
 10
236.5839174212
 20
1848.7813947811
 30
0.0
 11
236.5839174212
 21
1121.9813947811
 31
0.0
  0
LINE
  5
D6
330
1F
100
AcDbEntity
  8
KONTUR
100
AcDbLine
 10
910.4793754241
 20
1122.6842082969
 30
0.0
 11
911.0738978421
 21
1122.6842082885
 31
0.0
  0
LINE
  5
D7
330
1F
100
AcDbEntity
  8
KONTUR
100
AcDbLine
 10
910.3811037083
 20
1121.9950433139
 30
0.0
 11
910.3811037002
 21
1122.585952601
 31
0.0
  0
LINE
  5
D8
330
1F
100
AcDbEntity
  8
KONTUR
100
AcDbLine
 10
910.3811039053
 20
1848.1813947811
 30
0.0
 11
910.3811039137
 21
1848.7713752022
 31
0.0
  0
LINE
  5
D9
330
1F
100
AcDbEntity
  8
KONTUR
100
AcDbLine
 10
901.3339174212
 20
1107.4813947811
 30
0.0
 11
901.3339174212
 21
1111.4813947811
 31
0.0
  0
LINE
  5
DA
330
1F
100
AcDbEntity
  8
KONTUR
100
AcDbLine
 10
881.3339174212
 20
1111.4813947811
 30
0.0
 11
881.3339174212
 21
1107.4813947811
 31
0.0
  0
LINE
  5
DB
330
1F
100
AcDbEntity
  8
KONTUR
100
AcDbLine
 10
901.3339174212
 20
1116.4813947811
 30
0.0
 11
901.3339174212
 21
1119.4813947811
 31
0.0
  0
LINE
  5
DC
330
1F
100
AcDbEntity
  8
KONTUR
100
AcDbLine
 10
881.3339174212
 20
1119.4813947811
 30
0.0
 11
881.3339174212
 21
1116.4813947811
 31
0.0
  0
LINE
  5
DD
330
1F
100
AcDbEntity
  8
KONTUR
100
AcDbLine
 10
284.8339174212
 20
317.7561116148
 30
0.0
 11
284.8339174212
 21
320.0813947811
 31
0.0
  0
LINE
  5
DE
330
1F
100
AcDbEntity
  8
KONTUR
100
AcDbLine
 10
272.8339174212
 20
320.0813947811
 30
0.0
 11
272.8339174212
 21
317.7561116148
 31
0.0
  0
ARC
  5
DF
330
1F
100
AcDbEntity
  8
KONTUR
100
AcDbCircle
 10
284.2939174212
 20
317.7561116148
 30
0.0
 40
0.5399999999999878
100
AcDbArc
 50
305.251531542
 51
0.0
  0
ARC
  5
E0
330
1F
100
AcDbEntity
  8
KONTUR
100
AcDbCircle
 10
273.3739174212
 20
317.7561116148
 30
0.0
 40
0.5400000000000206
100
AcDbArc
 50
180.0
 51
234.748468458
  0
ARC
  5
E1
330
1F
100
AcDbEntity
  8
KONTUR
100
AcDbCircle
 10
278.8339174212
 20
325.4813947811
 30
0.0
 40
9.999999999999995
100
AcDbArc
 50
288.0819426134
 51
305.251531542
  0
ARC
  5
E2
330
1F
100
AcDbEntity
  8
KONTUR
100
AcDbCircle
 10
278.8339174212
 20
325.4813947811
 30
0.0
 40
9.999999999999995
100
AcDbArc
 50
234.748468458
 51
251.9180573866
  0
ARC
  5
E3
330
1F
100
AcDbEntity
  8
KONTUR
100
AcDbCircle
 10
874.2939174212
 20
317.7561116148
 30
0.0
 40
0.5400000000000206
100
AcDbArc
 50
305.251531542
 51
0.0
  0
ARC
  5
E4
330
1F
100
AcDbEntity
  8
KONTUR
100
AcDbCircle
 10
863.3739174212
 20
317.7561116148
 30
0.0
 40
0.5400000000000206
100
AcDbArc
 50
180.0
 51
234.748468458
  0
LINE
  5
E5
330
1F
100
AcDbEntity
  8
KONTUR
100
AcDbLine
 10
874.8339174212
 20
317.7561116148
 30
0.0
 11
874.8339174212
 21
320.0813947811
 31
0.0
  0
LINE
  5
E6
330
1F
100
AcDbEntity
  8
KONTUR
100
AcDbLine
 10
862.8339174212
 20
320.0813947811
 30
0.0
 11
862.8339174212
 21
317.7561116148
 31
0.0
  0
ARC
  5
E7
330
1F
100
AcDbEntity
  8
KONTUR
100
AcDbCircle
 10
868.8339174212
 20
325.4813947811
 30
0.0
 40
9.999999999999961
100
AcDbArc
 50
288.0819426134
 51
305.251531542
  0
ARC
  5
E8
330
1F
100
AcDbEntity
  8
KONTUR
100
AcDbCircle
 10
868.8339174212
 20
325.4813947811
 30
0.0
 40
10.00000000000003
100
AcDbArc
 50
234.748468458
 51
251.9180573866
  0
ARC
  5
E9
330
1F
100
AcDbEntity
  8
KONTUR
100
AcDbCircle
 10
334.2939174212
 20
317.7561116148
 30
0.0
 40
0.5400000000000205
100
AcDbArc
 50
305.251531542
 51
0.0
  0
ARC
  5
EA
330
1F
100
AcDbEntity
  8
KONTUR
100
AcDbCircle
 10
323.3739174212
 20
317.7561116148
 30
0.0
 40
0.5399999999999878
100
AcDbArc
 50
180.0
 51
234.748468458
  0
LINE
  5
EB
330
1F
100
AcDbEntity
  8
KONTUR
100
AcDbLine
 10
334.8339174212
 20
317.7561116148
 30
0.0
 11
334.8339174212
 21
320.0813947811
 31
0.0
  0
LINE
  5
EC
330
1F
100
AcDbEntity
  8
KONTUR
100
AcDbLine
 10
322.8339174212
 20
320.0813947811
 30
0.0
 11
322.8339174212
 21
317.7561116148
 31
0.0
  0
ARC
  5
ED
330
1F
100
AcDbEntity
  8
KONTUR
100
AcDbCircle
 10
328.8339174212
 20
325.4813947811
 30
0.0
 40
9.999999999999993
100
AcDbArc
 50
278.7102810905
 51
305.251531542
  0
ARC
  5
EE
330
1F
100
AcDbEntity
  8
KONTUR
100
AcDbCircle
 10
328.8339174212
 20
325.4813947811
 30
0.0
 40
9.999999999999961
100
AcDbArc
 50
234.748468458
 51
261.2897189095
  0
ARC
  5
EF
330
1F
100
AcDbEntity
  8
KONTUR
100
AcDbCircle
 10
824.2939174212
 20
317.7561116148
 30
0.0
 40
0.5400000000000773
100
AcDbArc
 50
305.251531542
 51
0.0
  0
ARC
  5
F0
330
1F
100
AcDbEntity
  8
KONTUR
100
AcDbCircle
 10
813.3739174212
 20
317.7561116148
 30
0.0
 40
0.5400000000000206
100
AcDbArc
 50
180.0
 51
234.748468458
  0
LINE
  5
F1
330
1F
100
AcDbEntity
  8
KONTUR
100
AcDbLine
 10
824.8339174212
 20
317.7561116148
 30
0.0
 11
824.8339174212
 21
320.0813947811
 31
0.0
  0
LINE
  5
F2
330
1F
100
AcDbEntity
  8
KONTUR
100
AcDbLine
 10
812.8339174212
 20
320.0813947811
 30
0.0
 11
812.8339174212
 21
317.7561116148
 31
0.0
  0
ARC
  5
F3
330
1F
100
AcDbEntity
  8
KONTUR
100
AcDbCircle
 10
818.8339174212
 20
325.4813947811
 30
0.0
 40
9.999999999999995
100
AcDbArc
 50
288.0819426134
 51
305.251531542
  0
ARC
  5
F4
330
1F
100
AcDbEntity
  8
KONTUR
100
AcDbCircle
 10
818.8339174212
 20
325.4813947811
 30
0.0
 40
10.00000000000002
100
AcDbArc
 50
234.748468458
 51
251.9180573866
  0
LINE
  5
F5
330
1F
100
AcDbEntity
  8
KONTUR
100
AcDbLine
 10
288.8839174212
 20
195.0813947811
 30
0.0
 11
288.8839174212
 21
185.2813947811
 31
0.0
  0
LINE
  5
F6
330
1F
100
AcDbEntity
  8
KONTUR
100
AcDbLine
 10
318.7839174212
 20
185.2813947811
 30
0.0
 11
318.7839174212
 21
195.0813947811
 31
0.0
  0
LINE
  5
F7
330
1F
100
AcDbEntity
  8
KONTUR
100
AcDbLine
 10
290.5839174212
 20
173.3313947811
 30
0.0
 11
291.8339174212
 21
172.0813947811
 31
0.0
  0
LINE
  5
F8
330
1F
100
AcDbEntity
  8
KONTUR
100
AcDbLine
 10
315.8339174212
 20
172.0813947811
 30
0.0
 11
317.0839174212
 21
173.3313947811
 31
0.0
  0
LINE
  5
F9
330
1F
100
AcDbEntity
  8
KONTUR
100
AcDbLine
 10
828.8839174212
 20
195.0813947811
 30
0.0
 11
828.8839174212
 21
185.2813947811
 31
0.0
  0
LINE
  5
FA
330
1F
100
AcDbEntity
  8
KONTUR
100
AcDbLine
 10
858.7839174212
 20
185.2813947811
 30
0.0
 11
858.7839174212
 21
195.0813947811
 31
0.0
  0
LINE
  5
FB
330
1F
100
AcDbEntity
  8
KONTUR
100
AcDbLine
 10
830.5839174212
 20
173.3313947811
 30
0.0
 11
831.8339174212
 21
172.0813947811
 31
0.0
  0
LINE
  5
FC
330
1F
100
AcDbEntity
  8
KONTUR
100
AcDbLine
 10
855.8339174212
 20
172.0813947811
 30
0.0
 11
857.0839174212
 21
173.3313947811
 31
0.0
  0
LINE
  5
FD
330
1F
100
AcDbEntity
  8
KONTUR
100
AcDbLine
 10
873.3839174212
 20
322.0813947811
 30
0.0
 11
873.3839174212
 21
322.3813947811
 31
0.0
  0
LINE
  5
FE
330
1F
100
AcDbEntity
  8
KONTUR
100
AcDbLine
 10
864.2839174212
 20
322.3813947811
 30
0.0
 11
864.2839174212
 21
322.0813947811
 31
0.0
  0
LINE
  5
FF
330
1F
100
AcDbEntity
  8
KONTUR
100
AcDbLine
 10
283.3839174212
 20
322.0813947811
 30
0.0
 11
283.3839174212
 21
322.3813947811
 31
0.0
  0
LINE
  5
100
330
1F
100
AcDbEntity
  8
KONTUR
100
AcDbLine
 10
274.2839174212
 20
322.3813947811
 30
0.0
 11
274.2839174212
 21
322.0813947811
 31
0.0
  0
LINE
  5
101
330
1F
100
AcDbEntity
  8
KONTUR
100
AcDbLine
 10
823.3839174212
 20
322.0813947811
 30
0.0
 11
823.3839174212
 21
322.3813947811
 31
0.0
  0
LINE
  5
102
330
1F
100
AcDbEntity
  8
KONTUR
100
AcDbLine
 10
814.2839174212
 20
322.3813947811
 30
0.0
 11
814.2839174212
 21
322.0813947811
 31
0.0
  0
LINE
  5
103
330
1F
100
AcDbEntity
  8
KONTUR
100
AcDbLine
 10
333.3839174212
 20
322.0813947811
 30
0.0
 11
333.3839174212
 21
322.3813947811
 31
0.0
  0
LINE
  5
104
330
1F
100
AcDbEntity
  8
KONTUR
100
AcDbLine
 10
324.2839174212
 20
322.3813947811
 30
0.0
 11
324.2839174212
 21
322.0813947811
 31
0.0
  0
CIRCLE
  5
105
330
1F
100
AcDbEntity
  8
KONTUR
100
AcDbCircle
 10
282.8339174212
 20
350.6813947811
 30
0.0
 40
6.850000000000026
  0
ARC
  5
106
330
1F
100
AcDbEntity
  8
KONTUR
100
AcDbCircle
 10
230.3339174212
 20
1133.9813947811
 30
0.0
 40
6.849999999999977
100
AcDbArc
 50
24.1596241267
 51
112.5226735859
  0
ARC
  5
107
330
1F
100
AcDbEntity
  8
KONTUR
100
AcDbCircle
 10
230.3339174212
 20
1133.9813947811
 30
0.0
 40
6.849999999999977
100
AcDbArc
 50
112.5226735859
 51
335.8403758733
  0
CIRCLE
  5
108
330
1F
100
AcDbEntity
  8
KONTUR
100
AcDbCircle
 10
317.8339174212
 20
338.6813947811
 30
0.0
 40
6.84999999999995
  0
CIRCLE
  5
109
330
1F
100
AcDbEntity
  8
KONTUR
100
AcDbCircle
 10
247.8339174212
 20
338.6813947811
 30
0.0
 40
6.849999999999921
  0
ARC
  5
10A
330
1F
100
AcDbEntity
  8
KONTUR
100
AcDbCircle
 10
230.3339174212
 20
1093.9813947811
 30
0.0
 40
6.849999999999974
100
AcDbArc
 50
24.1596241267
 51
112.5226735859
  0
ARC
  5
10B
330
1F
100
AcDbEntity
  8
KONTUR
100
AcDbCircle
 10
230.3339174212
 20
1093.9813947811
 30
0.0
 40
6.850000000000055
100
AcDbArc
 50
112.5226735859
 51
335.8403758733
  0
LINE
  5
10C
330
1F
100
AcDbEntity
  8
KONTUR
100
AcDbLine
 10
274.5839174212
 20
2223.8813947811
 30
0.0
 11
267.0839174212
 21
2223.8813947811
 31
0.0
  0
LINE
  5
10D
330
1F
100
AcDbEntity
  8
KONTUR
100
AcDbLine
 10
273.0839174212
 20
2224.6813947811
 30
0.0
 11
268.5839174212
 21
2224.6813947811
 31
0.0
  0
LINE
  5
10E
330
1F
100
AcDbEntity
  8
KONTUR
100
AcDbLine
 10
910.5839174212
 20
2223.8813947811
 30
0.0
 11
903.0839174212
 21
2223.8813947811
 31
0.0
  0
LINE
  5
10F
330
1F
100
AcDbEntity
  8
KONTUR
100
AcDbLine
 10
909.0839174212
 20
2224.6813947811
 30
0.0
 11
904.5839174212
 21
2224.6813947811
 31
0.0
  0
LINE
  5
110
330
1F
100
AcDbEntity
  8
KONTUR
100
AcDbLine
 10
879.0839174212
 20
2224.6813947811
 30
0.0
 11
874.5839174212
 21
2224.6813947811
 31
0.0
  0
LINE
  5
111
330
1F
100
AcDbEntity
  8
KONTUR
100
AcDbLine
 10
880.5839174212
 20
2223.8813947811
 30
0.0
 11
873.0839174212
 21
2223.8813947811
 31
0.0
  0
LINE
  5
112
330
1F
100
AcDbEntity
  8
KONTUR
100
AcDbLine
 10
244.5839174212
 20
2223.8813947811
 30
0.0
 11
237.0839174212
 21
2223.8813947811
 31
0.0
  0
LINE
  5
113
330
1F
100
AcDbEntity
  8
KONTUR
100
AcDbLine
 10
243.0839174212
 20
2224.6813947811
 30
0.0
 11
238.5839174212
 21
2224.6813947811
 31
0.0
  0
LINE
  5
114
330
1F
100
AcDbEntity
  8
KONTUR
100
AcDbLine
 10
911.8339174212
 20
2223.1813947811
 30
0.0
 11
911.8339174212
 21
2221.9813947811
 31
0.0
  0
LINE
  5
115
330
1F
100
AcDbEntity
  8
KONTUR
100
AcDbLine
 10
906.8339174212
 20
2223.1813947811
 30
0.0
 11
911.8339174212
 21
2223.1813947811
 31
0.0
  0
LINE
  5
116
330
1F
100
AcDbEntity
  8
KONTUR
100
AcDbLine
 10
871.8339174212
 20
2221.9813947811
 30
0.0
 11
871.8339174212
 21
2223.1813947811
 31
0.0
  0
LINE
  5
117
330
1F
100
AcDbEntity
  8
KONTUR
100
AcDbLine
 10
871.8339174212
 20
2223.1813947811
 30
0.0
 11
876.8339174212
 21
2223.1813947811
 31
0.0
  0
LINE
  5
118
330
1F
100
AcDbEntity
  8
KONTUR
100
AcDbLine
 10
906.8339174212
 20
2223.1813947811
 30
0.0
 11
876.8339174212
 21
2223.1813947811
 31
0.0
  0
LINE
  5
119
330
1F
100
AcDbEntity
  8
KONTUR
100
AcDbLine
 10
902.8339174212
 20
2224.7313947811
 30
0.0
 11
902.8339174212
 21
2223.1813947811
 31
0.0
  0
LINE
  5
11A
330
1F
100
AcDbEntity
  8
KONTUR
100
AcDbLine
 10
911.8339174212
 20
2224.7313947811
 30
0.0
 11
911.8339174212
 21
2223.1813947811
 31
0.0
  0
LINE
  5
11B
330
1F
100
AcDbEntity
  8
KONTUR
100
AcDbLine
 10
880.8339174212
 20
2224.7313947811
 30
0.0
 11
880.8339174212
 21
2223.1813947811
 31
0.0
  0
LINE
  5
11C
330
1F
100
AcDbEntity
  8
KONTUR
100
AcDbLine
 10
871.8339174212
 20
2224.7313947811
 30
0.0
 11
871.8339174212
 21
2223.1813947811
 31
0.0
  0
LINE
  5
11D
330
1F
100
AcDbEntity
  8
KONTUR
100
AcDbLine
 10
902.8339174212
 20
2227.4813947811
 30
0.0
 11
902.8339174212
 21
2224.7313947811
 31
0.0
  0
LINE
  5
11E
330
1F
100
AcDbEntity
  8
KONTUR
100
AcDbLine
 10
911.8339174212
 20
2227.4813947811
 30
0.0
 11
911.8339174212
 21
2224.7313947811
 31
0.0
  0
LINE
  5
11F
330
1F
100
AcDbEntity
  8
KONTUR
100
AcDbLine
 10
880.8339174212
 20
2227.4813947811
 30
0.0
 11
880.8339174212
 21
2224.7313947811
 31
0.0
  0
LINE
  5
120
330
1F
100
AcDbEntity
  8
KONTUR
100
AcDbLine
 10
871.8339174212
 20
2227.4813947811
 30
0.0
 11
871.8339174212
 21
2224.7313947811
 31
0.0
  0
LINE
  5
121
330
1F
100
AcDbEntity
  8
KONTUR
100
AcDbLine
 10
235.8339174212
 20
2221.9813947811
 30
0.0
 11
235.8339174212
 21
2223.1813947811
 31
0.0
  0
LINE
  5
122
330
1F
100
AcDbEntity
  8
KONTUR
100
AcDbLine
 10
235.8339174212
 20
2223.1813947811
 30
0.0
 11
240.8339174212
 21
2223.1813947811
 31
0.0
  0
LINE
  5
123
330
1F
100
AcDbEntity
  8
KONTUR
100
AcDbLine
 10
275.8339174212
 20
2223.1813947811
 30
0.0
 11
275.8339174212
 21
2221.9813947811
 31
0.0
  0
LINE
  5
124
330
1F
100
AcDbEntity
  8
KONTUR
100
AcDbLine
 10
270.8339174212
 20
2223.1813947811
 30
0.0
 11
275.8339174212
 21
2223.1813947811
 31
0.0
  0
LINE
  5
125
330
1F
100
AcDbEntity
  8
KONTUR
100
AcDbLine
 10
270.8339174212
 20
2223.1813947811
 30
0.0
 11
240.8339174212
 21
2223.1813947811
 31
0.0
  0
LINE
  5
126
330
1F
100
AcDbEntity
  8
KONTUR
100
AcDbLine
 10
266.8339174212
 20
2227.4813947811
 30
0.0
 11
266.8339174212
 21
2224.7313947811
 31
0.0
  0
LINE
  5
127
330
1F
100
AcDbEntity
  8
KONTUR
100
AcDbLine
 10
275.8339174212
 20
2227.4813947811
 30
0.0
 11
275.8339174212
 21
2224.7313947811
 31
0.0
  0
LINE
  5
128
330
1F
100
AcDbEntity
  8
KONTUR
100
AcDbLine
 10
266.8339174212
 20
2224.7313947811
 30
0.0
 11
266.8339174212
 21
2223.1813947811
 31
0.0
  0
LINE
  5
129
330
1F
100
AcDbEntity
  8
KONTUR
100
AcDbLine
 10
275.8339174212
 20
2224.7313947811
 30
0.0
 11
275.8339174212
 21
2223.1813947811
 31
0.0
  0
LINE
  5
12A
330
1F
100
AcDbEntity
  8
KONTUR
100
AcDbLine
 10
244.8339174212
 20
2224.7313947811
 30
0.0
 11
244.8339174212
 21
2223.1813947811
 31
0.0
  0
LINE
  5
12B
330
1F
100
AcDbEntity
  8
KONTUR
100
AcDbLine
 10
235.8339174212
 20
2224.7313947811
 30
0.0
 11
235.8339174212
 21
2223.1813947811
 31
0.0
  0
LINE
  5
12C
330
1F
100
AcDbEntity
  8
KONTUR
100
AcDbLine
 10
244.8339174212
 20
2227.4813947811
 30
0.0
 11
244.8339174212
 21
2224.7313947811
 31
0.0
  0
LINE
  5
12D
330
1F
100
AcDbEntity
  8
KONTUR
100
AcDbLine
 10
235.8339174212
 20
2227.4813947811
 30
0.0
 11
235.8339174212
 21
2224.7313947811
 31
0.0
  0
LINE
  5
12E
330
1F
100
AcDbEntity
  8
KONTUR
100
AcDbLine
 10
900.8339174212
 20
2227.4813947811
 30
0.0
 11
900.8339174212
 21
2223.1813947811
 31
0.0
  0
LINE
  5
12F
330
1F
100
AcDbEntity
  8
KONTUR
100
AcDbLine
 10
882.8339174212
 20
2227.4813947811
 30
0.0
 11
882.8339174212
 21
2223.1813947811
 31
0.0
  0
LINE
  5
130
330
1F
100
AcDbEntity
  8
KONTUR
100
AcDbLine
 10
264.8339174212
 20
2227.4813947811
 30
0.0
 11
264.8339174212
 21
2223.1813947811
 31
0.0
  0
LINE
  5
131
330
1F
100
AcDbEntity
  8
KONTUR
100
AcDbLine
 10
246.8339174212
 20
2227.4813947811
 30
0.0
 11
246.8339174212
 21
2223.1813947811
 31
0.0
  0
LINE
  5
132
330
1F
100
AcDbEntity
  8
KONTUR
100
AcDbLine
 10
882.8339174212
 20
2224.7313947811
 30
0.0
 11
882.8339174212
 21
2227.4813947811
 31
0.0
  0
LINE
  5
133
330
1F
100
AcDbEntity
  8
KONTUR
100
AcDbLine
 10
882.8339174212
 20
2223.1813947811
 30
0.0
 11
882.8339174212
 21
2224.7313947811
 31
0.0
  0
LINE
  5
134
330
1F
100
AcDbEntity
  8
KONTUR
100
AcDbLine
 10
246.8339174212
 20
2224.7313947811
 30
0.0
 11
246.8339174212
 21
2227.4813947811
 31
0.0
  0
LINE
  5
135
330
1F
100
AcDbEntity
  8
KONTUR
100
AcDbLine
 10
246.8339174212
 20
2223.1813947811
 30
0.0
 11
246.8339174212
 21
2224.7313947811
 31
0.0
  0
LINE
  5
136
330
1F
100
AcDbEntity
  8
KONTUR
100
AcDbLine
 10
277.0339174212
 20
2226.5313947811
 30
0.0
 11
277.0339174212
 21
2222.9313947811
 31
0.0
  0
LINE
  5
137
330
1F
100
AcDbEntity
  8
KONTUR
100
AcDbLine
 10
913.0339174212
 20
2226.5313947811
 30
0.0
 11
913.0339174212
 21
2222.9313947811
 31
0.0
  0
LINE
  5
138
330
1F
100
AcDbEntity
  8
KONTUR
100
AcDbLine
 10
870.6339174212
 20
2224.7313947811
 30
0.0
 11
870.6339174212
 21
2226.5313947811
 31
0.0
  0
LINE
  5
139
330
1F
100
AcDbEntity
  8
KONTUR
100
AcDbLine
 10
870.6339174212
 20
2222.9313947811
 30
0.0
 11
870.6339174212
 21
2224.7313947811
 31
0.0
  0
LINE
  5
13A
330
1F
100
AcDbEntity
  8
KONTUR
100
AcDbLine
 10
234.6339174212
 20
2224.7313947811
 30
0.0
 11
234.6339174212
 21
2226.5313947811
 31
0.0
  0
LINE
  5
13B
330
1F
100
AcDbEntity
  8
KONTUR
100
AcDbLine
 10
234.6339174212
 20
2222.9313947811
 30
0.0
 11
234.6339174212
 21
2224.7313947811
 31
0.0
  0
ARC
  5
13C
330
1F
100
AcDbEntity
  8
KONTUR
100
AcDbCircle
 10
271.8380638413
 20
2001.0265847389
 30
0.0
 40
1.763460000000403
100
AcDbArc
 50
26.1981327449
 51
90.0
  0
LINE
  5
13D
330
1F
100
AcDbEntity
  8
KONTUR
100
AcDbLine
 10
282.8218534825
 20
1982.6971987238
 30
0.0
 11
273.4203684587
 21
2001.8051110835
 31
0.0
  0
ARC
  5
13E
330
1F
100
AcDbEntity
  8
KONTUR
100
AcDbCircle
 10
283.6130057912
 20
1983.0864618962
 30
0.0
 40
0.8817300000005897
100
AcDbArc
 50
206.1981327449
 51
334.7622916022
  0
LINE
  5
13F
330
1F
100
AcDbEntity
  8
KONTUR
100
AcDbLine
 10
293.5575477377
 20
2002.1156678892
 30
0.0
 11
284.4105716965
 21
1982.7105145334
 31
0.0
  0
ARC
  5
140
330
1F
100
AcDbEntity
  8
KONTUR
100
AcDbCircle
 10
294.6209689448
 20
2001.6144047389
 30
0.0
 40
1.175640000000158
100
AcDbArc
 50
90.0
 51
154.7622916022
  0
ARC
  5
141
330
1F
100
AcDbEntity
  8
KONTUR
100
AcDbCircle
 10
297.1314822226
 20
2068.069005311
 30
0.0
 40
65.32721768369457
100
AcDbArc
 50
267.7975911209
 51
272.2024088638
  0
ARC
  5
142
330
1F
100
AcDbEntity
  8
KONTUR
100
AcDbCircle
 10
299.6419954827
 20
2001.6144047379
 30
0.0
 40
1.175640000335314
100
AcDbArc
 50
5.9866169283
 51
89.9999999874
  0
ARC
  5
143
330
1F
100
AcDbEntity
  8
KONTUR
100
AcDbCircle
 10
299.0518923888
 20
2001.5902540888
 30
0.0
 40
1.76868736787526
100
AcDbArc
 50
337.9290136288
 51
357.5390953044
  0
ARC
  5
144
330
1F
100
AcDbEntity
  8
KONTUR
100
AcDbCircle
 10
299.6014806678
 20
2001.3674135536
 30
0.0
 40
1.175640000000046
100
AcDbArc
 50
285.510955852
 51
337.9290136288
  0
LINE
  5
145
330
1F
100
AcDbEntity
  8
KONTUR
100
AcDbLine
 10
298.8529380753
 20
1999.939594193
 30
0.0
 11
299.9158734114
 21
2000.2345911437
 31
0.0
  0
LINE
  5
146
330
1F
100
AcDbEntity
  8
KONTUR
100
AcDbLine
 10
275.1579166306
 20
1985.9006983653
 30
0.0
 11
281.2392406831
 21
1973.5407991864
 31
0.0
  0
ARC
  5
147
330
1F
100
AcDbEntity
  8
KONTUR
100
AcDbCircle
 10
274.3667643219
 20
1985.511435193
 30
0.0
 40
0.881730000000204
100
AcDbArc
 50
26.1981327449
 51
180.0
  0
LINE
  5
148
330
1F
100
AcDbEntity
  8
KONTUR
100
AcDbLine
 10
273.4850343219
 20
1976.9229695234
 30
0.0
 11
273.4850343219
 21
1985.511435193
 31
0.0
  0
ARC
  5
149
330
1F
100
AcDbEntity
  8
KONTUR
100
AcDbCircle
 10
275.5645330826
 20
1977.0428995179
 30
0.0
 40
2.08295422402582
100
AcDbArc
 50
183.3007373472
 51
249.3282843967
  0
ARC
  5
14A
330
1F
100
AcDbEntity
  8
KONTUR
100
AcDbCircle
 10
273.9404635217
 20
1970.1720686189
 30
0.0
 40
5.001578395144359
100
AcDbArc
 50
58.3787992707
 51
79.764423031
  0
ARC
  5
14B
330
1F
100
AcDbEntity
  8
KONTUR
100
AcDbCircle
 10
275.689803184
 20
1973.3571495489
 30
0.0
 40
1.383993619655292
100
AcDbArc
 50
260.0618212427
 51
50.8924383705
  0
ARC
  5
14C
330
1F
100
AcDbEntity
  8
KONTUR
100
AcDbCircle
 10
271.4537599417
 20
1941.9116946323
 30
0.0
 40
30.34663050394429
100
AcDbArc
 50
82.4311415404
 51
96.2243525973
  0
ARC
  5
14D
330
1F
100
AcDbEntity
  8
KONTUR
100
AcDbCircle
 10
267.8316973646
 20
1974.8854827547
 30
0.0
 40
2.825603299790607
100
AcDbArc
 50
240.3929850387
 51
276.7440662298
  0
ARC
  5
14E
330
1F
100
AcDbEntity
  8
KONTUR
100
AcDbCircle
 10
267.2457012736
 20
1973.4606467683
 30
0.0
 40
1.311783852410825
100
AcDbArc
 50
130.3421427387
 51
231.8683132366
  0
ARC
  5
14F
330
1F
100
AcDbEntity
  8
KONTUR
100
AcDbCircle
 10
266.943380306
 20
1977.1942657126
 30
0.0
 40
2.294344394480019
100
AcDbArc
 50
282.9409957985
 51
350.5784666576
  0
ARC
  5
150
330
1F
100
AcDbEntity
  8
KONTUR
100
AcDbCircle
 10
238.3297286894
 20
1992.0940366762
 30
0.0
 40
31.57031071420775
100
AcDbArc
 50
354.5909739031
 51
8.4018480694
  0
ARC
  5
151
330
1F
100
AcDbEntity
  8
KONTUR
100
AcDbCircle
 10
299.3552219559
 20
1998.2491794289
 30
0.0
 40
1.763460000000223
100
AcDbArc
 50
106.5486047358
 51
182.4049605029
  0
LINE
  5
152
330
1F
100
AcDbEntity
  8
KONTUR
100
AcDbLine
 10
298.512053647
 20
1976.3000121674
 30
0.0
 11
297.5933152099
 21
1998.1751808475
 31
0.0
  0
ARC
  5
153
330
1F
100
AcDbEntity
  8
KONTUR
100
AcDbCircle
 10
299.6866581442
 20
1976.3493445549
 30
0.0
 40
1.175639999923919
100
AcDbArc
 50
182.4049605008
 51
243.3238892658
  0
ARC
  5
154
330
1F
100
AcDbEntity
  8
KONTUR
100
AcDbCircle
 10
297.4791989788
 20
1964.5286572349
 30
0.0
 40
10.90037250630014
100
AcDbArc
 50
72.5024465264
 51
81.1358634344
  0
ARC
  5
155
330
1F
100
AcDbEntity
  8
KONTUR
100
AcDbCircle
 10
300.769463301
 20
1972.5734226201
 30
0.0
 40
2.351279999999861
100
AcDbArc
 50
84.5058246764
 51
90.3144206902
  0
ARC
  5
156
330
1F
100
AcDbEntity
  8
KONTUR
100
AcDbCircle
 10
301.2685561746
 20
1977.7622292538
 30
0.0
 40
2.861474356230733
100
AcDbArc
 50
264.5058246764
 51
332.1082986081
  0
ARC
  5
157
330
1F
100
AcDbEntity
  8
KONTUR
100
AcDbCircle
 10
864.8923911032
 20
1740.5219948622
 30
0.0
 40
608.6681516270212
100
AcDbArc
 50
154.462652373
 51
157.1966061944
  0
ARC
  5
158
330
1F
100
AcDbEntity
  8
KONTUR
100
AcDbCircle
 10
316.9247377409
 20
2002.3713260864
 30
0.0
 40
1.351986000000098
100
AcDbArc
 50
21.9194778838
 51
156.129435546
  0
ARC
  5
159
330
1F
100
AcDbEntity
  8
KONTUR
100
AcDbCircle
 10
-578.8168623402
 20
1626.8032460922
 30
0.0
 40
972.6419133704729
100
AcDbArc
 50
21.0926930908
 51
22.7462626769
  0
ARC
  5
15A
330
1F
100
AcDbEntity
  8
KONTUR
100
AcDbCircle
 10
330.8388002823
 20
1977.713243638
 30
0.0
 40
2.351280000000061
100
AcDbArc
 50
201.9194778838
 51
245.1842715033
  0
ARC
  5
15B
330
1F
100
AcDbEntity
  8
KONTUR
100
AcDbCircle
 10
299.2226820289
 20
2001.5704321411
 30
0.0
 40
1.597252810657221
100
AcDbArc
 50
357.9864296152
 51
5.9866168971
  0
ARC
  5
15C
330
1F
100
AcDbEntity
  8
KONTUR
100
AcDbCircle
 10
328.9861310379
 20
1968.4731551849
 30
0.0
 40
7.109621922347584
100
AcDbArc
 50
58.1270072449
 51
80.5575669219
  0
ARC
  5
15D
330
1F
100
AcDbEntity
  8
KONTUR
100
AcDbCircle
 10
332.033582563
 20
1973.6102289705
 30
0.0
 40
1.144744667754349
100
AcDbArc
 50
307.0573497426
 51
51.8776593373
  0
ARC
  5
15E
330
1F
100
AcDbEntity
  8
KONTUR
100
AcDbCircle
 10
331.2530695358
 20
1974.520654273
 30
0.0
 40
2.342818578459651
100
AcDbArc
 50
269.5630130461
 51
308.8732564025
  0
ARC
  5
15F
330
1F
100
AcDbEntity
  8
KONTUR
100
AcDbCircle
 10
327.2647605189
 20
1934.4126145023
 30
0.0
 40
37.97343122172657
100
AcDbArc
 50
83.9982758665
 51
97.1448198183
  0
ARC
  5
160
330
1F
100
AcDbEntity
  8
KONTUR
100
AcDbCircle
 10
322.4751948113
 20
1973.6238127671
 30
0.0
 40
1.534075559126867
100
AcDbArc
 50
187.0760591345
 51
272.4851386068
  0
ARC
  5
161
330
1F
100
AcDbEntity
  8
KONTUR
100
AcDbCircle
 10
322.1194892767
 20
1973.5796582298
 30
0.0
 40
1.175639999354941
100
AcDbArc
 50
109.4323485955
 51
187.0760591629
  0
LINE
  5
162
330
1F
100
AcDbEntity
  8
KONTUR
100
AcDbLine
 10
322.8940948128
 20
1975.0995873468
 30
0.0
 11
321.7283613583
 21
1974.6883278648
 31
0.0
  0
ARC
  5
163
330
1F
100
AcDbEntity
  8
KONTUR
100
AcDbCircle
 10
322.7963128331
 20
1975.3767547556
 30
0.0
 40
0.2939099999995558
100
AcDbArc
 50
289.4323486065
 51
10.645182768
  0
LINE
  5
164
330
1F
100
AcDbEntity
  8
KONTUR
100
AcDbLine
 10
322.9298067604
 20
1976.2575897857
 30
0.0
 11
323.0851646366
 21
1975.431047699
 31
0.0
  0
ARC
  5
165
330
1F
100
AcDbEntity
  8
KONTUR
100
AcDbCircle
 10
305.5986985492
 20
1973.0000131816
 30
0.0
 40
17.63460000003701
100
AcDbArc
 50
10.6451827679
 51
21.9194778838
  0
LINE
  5
166
330
1F
100
AcDbEntity
  8
KONTUR
100
AcDbLine
 10
320.7671094621
 20
1982.5437908852
 30
0.0
 11
321.9584827679
 21
1979.5830654736
 31
0.0
  0
ARC
  5
167
330
1F
100
AcDbEntity
  8
KONTUR
100
AcDbCircle
 10
319.8945876371
 20
1982.192694763
 30
0.0
 40
0.9405120000003535
100
AcDbArc
 50
21.9194778838
 51
90.0
  0
LINE
  5
168
330
1F
100
AcDbEntity
  8
KONTUR
100
AcDbLine
 10
311.3701963644
 20
1983.133206763
 30
0.0
 11
319.8945876371
 21
1983.133206763
 31
0.0
  0
ARC
  5
169
330
1F
100
AcDbEntity
  8
KONTUR
100
AcDbCircle
 10
311.3701963644
 20
1982.192694763
 30
0.0
 40
0.9405120000003535
100
AcDbArc
 50
90.0
 51
156.129435546
  0
LINE
  5
16A
330
1F
100
AcDbEntity
  8
KONTUR
100
AcDbLine
 10
307.9351613032
 20
1976.7544686753
 30
0.0
 11
310.5101339034
 21
1982.5732934826
 31
0.0
  0
ARC
  5
16B
330
1F
100
AcDbEntity
  8
KONTUR
100
AcDbCircle
 10
309.0102393794
 20
1976.2787202757
 30
0.0
 40
1.175640000039493
100
AcDbArc
 50
156.1294355467
 51
241.019681221
  0
ARC
  5
16C
330
1F
100
AcDbEntity
  8
KONTUR
100
AcDbCircle
 10
312.583912365
 20
1982.731023023
 30
0.0
 40
8.551502617409673
100
AcDbArc
 50
241.0196812229
 51
254.9045117306
  0
ARC
  5
16D
330
1F
100
AcDbEntity
  8
KONTUR
100
AcDbCircle
 10
309.8037696554
 20
1973.4371941074
 30
0.0
 40
1.175640000000099
100
AcDbArc
 50
357.4062741582
 51
61.9360458059
  0
ARC
  5
16E
330
1F
100
AcDbEntity
  8
KONTUR
100
AcDbCircle
 10
309.6990343944
 20
1973.4419386152
 30
0.0
 40
1.280482669001601
100
AcDbArc
 50
275.2978901475
 51
357.4062741582
  0
ARC
  5
16F
330
1F
100
AcDbEntity
  8
KONTUR
100
AcDbCircle
 10
305.7649801708
 20
1894.715974195
 30
0.0
 40
77.55688857503812
100
AcDbArc
 50
87.0049769654
 51
91.6446358724
  0
ARC
  5
170
330
1F
100
AcDbEntity
  8
KONTUR
100
AcDbCircle
 10
300.9011099263
 20
1992.4342195234
 30
0.0
 40
20.36488195621502
100
AcDbArc
 50
261.5741513951
 51
277.442705303
  0
ARC
  5
171
330
1F
100
AcDbEntity
  8
KONTUR
100
AcDbCircle
 10
297.5725262248
 20
1969.9632483703
 30
0.0
 40
2.351280000000317
100
AcDbArc
 50
81.5741513951
 51
89.7357576068
  0
ARC
  5
172
330
1F
100
AcDbEntity
  8
KONTUR
100
AcDbCircle
 10
297.3018105864
 20
1911.264288791
 30
0.0
 40
61.05086383712725
100
AcDbArc
 50
89.7357576067
 51
94.5067137319
  0
ARC
  5
173
330
1F
100
AcDbEntity
  8
KONTUR
100
AcDbCircle
 10
292.2040422934
 20
1974.5354894361
 30
0.0
 40
2.427784574074372
100
AcDbArc
 50
228.8448822437
 51
277.113397041
  0
ARC
  5
174
330
1F
100
AcDbEntity
  8
KONTUR
100
AcDbCircle
 10
291.4681364295
 20
1973.4577262077
 30
0.0
 40
1.142592241567873
100
AcDbArc
 50
118.0309935636
 51
221.0386980827
  0
LINE
  5
175
330
1F
100
AcDbEntity
  8
KONTUR
100
AcDbLine
 10
292.1185287941
 20
1975.0984356331
 30
0.0
 11
290.9311762161
 21
1974.4662849615
 31
0.0
  0
ARC
  5
176
330
1F
100
AcDbEntity
  8
KONTUR
100
AcDbCircle
 10
291.7643968932
 20
1976.1887209426
 30
0.0
 40
1.146355729818173
100
AcDbArc
 50
287.9941403838
 51
350.1490028929
  0
ARC
  5
177
330
1F
100
AcDbEntity
  8
KONTUR
100
AcDbCircle
 10
7674.2542017321
 20
2225.5190225756
 30
0.0
 40
7385.576759394216
100
AcDbArc
 50
181.851643436
 51
181.9361429635
  0
ARC
  5
178
330
1F
100
AcDbEntity
  8
KONTUR
100
AcDbCircle
 10
291.6526082833
 20
1986.850365329
 30
0.0
 40
0.8817300000005602
100
AcDbArc
 50
1.8516434401
 51
154.7622916021
  0
LINE
  5
179
330
1F
100
AcDbEntity
  8
KONTUR
100
AcDbLine
 10
284.4166771112
 20
1973.5674308056
 30
0.0
 11
290.855042378
 21
1987.2263126917
 31
0.0
  0
ARC
  5
17A
330
1F
100
AcDbEntity
  8
KONTUR
100
AcDbCircle
 10
282.8215453005
 20
1974.319325531
 30
0.0
 40
1.763460000000163
100
AcDbArc
 50
206.1981327449
 51
334.7622916022
  0
ARC
  5
17B
330
1F
100
AcDbEntity
  8
KONTUR
100
AcDbCircle
 10
330.3453826879
 20
1976.646159533
 30
0.0
 40
1.175640000000004
100
AcDbArc
 50
245.1842715033
 51
260.5575669219
  0
ARC
  5
17C
330
1F
100
AcDbEntity
  8
KONTUR
100
AcDbCircle
 10
267.8185044532
 20
1972.8091567308
 30
0.0
 40
2.179199621388716
100
AcDbArc
 50
99.5437147471
 51
130.7324201542
  0
LINE
  5
17D
330
1F
100
AcDbEntity
  8
KONTUR
100
AcDbLine
 10
269.7594608158
 20
1989.1180566608
 30
0.0
 11
269.2067756224
 21
1976.8186890334
 31
0.0
  0
LINE
  5
17E
330
1F
100
AcDbEntity
  8
KONTUR
100
AcDbLine
 10
314.9747767308
 20
1992.6623229488
 30
0.0
 11
313.1158231721
 21
1988.4615306445
 31
0.0
  0
ARC
  5
17F
330
1F
100
AcDbEntity
  8
KONTUR
100
AcDbCircle
 10
315.8348391917
 20
1992.2817242292
 30
0.0
 40
0.9405120000000636
100
AcDbArc
 50
21.9194778838
 51
156.129435546
  0
LINE
  5
180
330
1F
100
AcDbEntity
  8
KONTUR
100
AcDbLine
 10
318.5276610868
 20
1988.1091260165
 30
0.0
 11
316.7073610167
 21
1992.6328203515
 31
0.0
  0
ARC
  5
181
330
1F
100
AcDbEntity
  8
KONTUR
100
AcDbCircle
 10
317.8732697181
 20
1987.8458039249
 30
0.0
 40
0.705384000000322
100
AcDbArc
 50
270.0
 51
21.9194778838
  0
LINE
  5
182
330
1F
100
AcDbEntity
  8
KONTUR
100
AcDbLine
 10
313.9758856331
 20
1987.1404199248
 30
0.0
 11
317.8732697181
 21
1987.1404199248
 31
0.0
  0
ARC
  5
183
330
1F
100
AcDbEntity
  8
KONTUR
100
AcDbCircle
 10
313.9758856331
 20
1988.0809319249
 30
0.0
 40
0.9405120000001261
100
AcDbArc
 50
156.129435546
 51
270.0
  0
ARC
  5
184
330
1F
100
AcDbEntity
  8
KONTUR
100
AcDbCircle
 10
266.2972979349
 20
1996.4613866957
 30
0.0
 40
3.273140000138824
100
AcDbArc
 50
4.3022484073
 51
64.8419899519
  0
ARC
  5
185
330
1F
100
AcDbEntity
  8
KONTUR
100
AcDbCircle
 10
268.3590039059
 20
2004.2141809224
 30
0.0
 40
4.836811161452675
100
AcDbArc
 50
225.6983780891
 51
262.0348375317
  0
ARC
  5
186
330
1F
100
AcDbEntity
  8
KONTUR
100
AcDbCircle
 10
266.2794181027
 20
2001.3826618077
 30
0.0
 40
1.443388858432205
100
AcDbArc
 50
85.1670169906
 51
205.8815131139
  0
ARC
  5
187
330
1F
100
AcDbEntity
  8
KONTUR
100
AcDbCircle
 10
269.5326417418
 20
2075.5535672358
 30
0.0
 40
72.8000355577464
100
AcDbArc
 50
267.534564901
 51
271.8147387325
  0
LINE
  5
188
330
1F
100
AcDbEntity
  8
KONTUR
100
AcDbLine
 10
365.8673659754
 20
1989.1666393476
 30
0.0
 11
365.8673659754
 21
1977.3446465838
 31
0.0
  0
ARC
  5
189
330
1F
100
AcDbEntity
  8
KONTUR
100
AcDbCircle
 10
494.4844985481
 20
1992.1475545214
 30
0.0
 40
128.6516717594919
100
AcDbArc
 50
179.0603859415
 51
181.3276869412
  0
ARC
  5
18A
330
1F
100
AcDbEntity
  8
KONTUR
100
AcDbCircle
 10
357.3187527805
 20
1994.4112860218
 30
0.0
 40
8.532763541365686
100
AcDbArc
 50
358.9657232369
 51
24.6935217705
  0
ARC
  5
18B
330
1F
100
AcDbEntity
  8
KONTUR
100
AcDbCircle
 10
361.6041566904
 20
1995.8549881603
 30
0.0
 40
4.064387000836989
100
AcDbArc
 50
31.4561289652
 51
75.7919426131
  0
ARC
  5
18C
330
1F
100
AcDbEntity
  8
KONTUR
100
AcDbCircle
 10
362.6706269463
 20
2002.0380265337
 30
0.0
 40
2.244035287367639
100
AcDbArc
 50
222.3171932659
 51
268.240739836
  0
ARC
  5
18D
330
1F
100
AcDbEntity
  8
KONTUR
100
AcDbCircle
 10
362.4731622581
 20
2001.3240803588
 30
0.0
 40
1.664900080932206
100
AcDbArc
 50
117.9943971917
 51
208.5937887742
  0
ARC
  5
18E
330
1F
100
AcDbEntity
  8
KONTUR
100
AcDbCircle
 10
362.3769111062
 20
2001.3418921418
 30
0.0
 40
1.605822892259009
100
AcDbArc
 50
78.2975012653
 51
115.2592507946
  0
ARC
  5
18F
330
1F
100
AcDbEntity
  8
KONTUR
100
AcDbCircle
 10
364.3621744124
 20
2013.3296012419
 30
0.0
 40
10.54665175228353
100
AcDbArc
 50
260.9466736113
 51
275.4100655455
  0
ARC
  5
190
330
1F
100
AcDbEntity
  8
KONTUR
100
AcDbCircle
 10
365.8022804857
 20
2000.5872247087
 30
0.0
 40
2.286571158031736
100
AcDbArc
 50
47.2289384461
 51
101.2409559308
  0
LINE
  5
191
330
1F
100
AcDbEntity
  8
KONTUR
100
AcDbLine
 10
384.6635328863
 20
1983.4075139044
 30
0.0
 11
367.3550238067
 21
2002.2657347146
 31
0.0
  0
ARC
  5
192
330
1F
100
AcDbEntity
  8
KONTUR
100
AcDbCircle
 10
385.2698230736
 20
1983.963980992
 30
0.0
 40
0.8229479999998403
100
AcDbArc
 50
222.5464284529
 51
0.0
  0
LINE
  5
193
330
1F
100
AcDbEntity
  8
KONTUR
100
AcDbLine
 10
386.0927710736
 20
1997.322257587
 30
0.0
 11
386.0927710736
 21
1983.963980992
 31
0.0
  0
ARC
  5
194
330
1F
100
AcDbEntity
  8
KONTUR
100
AcDbCircle
 10
383.2392018113
 20
1996.9509535348
 30
0.0
 40
2.877624755550848
100
AcDbArc
 50
7.413626258
 51
89.4496125495
  0
ARC
  5
195
330
1F
100
AcDbEntity
  8
KONTUR
100
AcDbCircle
 10
383.5615006574
 20
2003.0784681331
 30
0.0
 40
3.263352490766596
100
AcDbArc
 50
243.9509976247
 51
264.8195593438
  0
ARC
  5
196
330
1F
100
AcDbEntity
  8
KONTUR
100
AcDbCircle
 10
382.4782291924
 20
2001.3257585859
 30
0.0
 40
1.22993762874541
100
AcDbArc
 50
186.364160791
 51
253.476923058
  0
ARC
  5
197
330
1F
100
AcDbEntity
  8
KONTUR
100
AcDbCircle
 10
382.8514609613
 20
2001.3050154086
 30
0.0
 40
1.599771385124182
100
AcDbArc
 50
93.0257953268
 51
184.143538926
  0
ARC
  5
198
330
1F
100
AcDbEntity
  8
KONTUR
100
AcDbCircle
 10
378.3509065152
 20
1903.5960231884
 30
0.0
 40
99.40467586570209
100
AcDbArc
 50
85.5409739507
 51
87.4537641673
  0
ARC
  5
199
330
1F
100
AcDbEntity
  8
KONTUR
100
AcDbCircle
 10
387.6489828471
 20
2022.6901004071
 30
0.0
 40
20.05181844559451
100
AcDbArc
 50
265.5100375536
 51
275.2627731258
  0
ARC
  5
19A
330
1F
100
AcDbEntity
  8
KONTUR
100
AcDbCircle
 10
389.2888592995
 20
2012.6362300724
 30
0.0
 40
9.915423900755322
100
AcDbArc
 50
271.1520047026
 51
278.9915671673
  0
ARC
  5
19B
330
1F
100
AcDbEntity
  8
KONTUR
100
AcDbCircle
 10
390.9850448963
 20
2001.4838947746
 30
0.0
 40
1.366634843870855
100
AcDbArc
 50
6.8721468918
 51
96.1543425704
  0
ARC
  5
19C
330
1F
100
AcDbEntity
  8
KONTUR
100
AcDbCircle
 10
391.2406546527
 20
2001.4651972994
 30
0.0
 40
1.116181286292531
100
AcDbArc
 50
294.2692122186
 51
9.3958227399
  0
ARC
  5
19D
330
1F
100
AcDbEntity
  8
KONTUR
100
AcDbCircle
 10
392.1806073277
 20
1997.842885295
 30
0.0
 40
2.648844466614368
100
AcDbArc
 50
100.4661498282
 51
139.7107079679
  0
ARC
  5
19E
330
1F
100
AcDbEntity
  8
KONTUR
100
AcDbCircle
 10
391.886525447
 20
1998.4058846895
 30
0.0
 40
2.074307479851445
100
AcDbArc
 50
146.3348337766
 51
164.4335916412
  0
LINE
  5
19F
330
1F
100
AcDbEntity
  8
KONTUR
100
AcDbLine
 10
389.888303431
 20
1973.4891034779
 30
0.0
 11
389.888303431
 21
1998.9625356535
 31
0.0
  0
ARC
  5
1A0
330
1F
100
AcDbEntity
  8
KONTUR
100
AcDbCircle
 10
388.418753431
 20
1973.4891034779
 30
0.0
 40
1.469550000000368
100
AcDbArc
 50
222.5464284529
 51
0.0
  0
LINE
  5
1A1
330
1F
100
AcDbEntity
  8
KONTUR
100
AcDbLine
 10
371.3123338954
 20
1989.9538527412
 30
0.0
 11
387.3360923824
 21
1972.4954122501
 31
0.0
  0
ARC
  5
1A2
330
1F
100
AcDbEntity
  8
KONTUR
100
AcDbCircle
 10
370.7060437081
 20
1989.3973856537
 30
0.0
 40
0.8229480000003946
100
AcDbArc
 50
42.546428453
 51
180.0
  0
LINE
  5
1A3
330
1F
100
AcDbEntity
  8
KONTUR
100
AcDbLine
 10
369.8830957081
 20
1976.8831058321
 30
0.0
 11
369.8830957081
 21
1989.3973856537
 31
0.0
  0
ARC
  5
1A4
330
1F
100
AcDbEntity
  8
KONTUR
100
AcDbCircle
 10
371.6465557081
 20
1976.8831058321
 30
0.0
 40
1.763459999952886
100
AcDbArc
 50
179.9999999995
 51
257.3100595655
  0
ARC
  5
1A5
330
1F
100
AcDbEntity
  8
KONTUR
100
AcDbCircle
 10
372.0132858718
 20
1978.5117491312
 30
0.0
 40
3.432882058238264
100
AcDbArc
 50
257.3100595641
 51
264.2957248418
  0
ARC
  5
1A6
330
1F
100
AcDbEntity
  8
KONTUR
100
AcDbCircle
 10
371.4358473804
 20
1972.4784173698
 30
0.0
 40
2.628087350101821
100
AcDbArc
 50
51.3879176368
 51
84.8428994224
  0
ARC
  5
1A7
330
1F
100
AcDbEntity
  8
KONTUR
100
AcDbCircle
 10
372.3970507658
 20
1973.6102289706
 30
0.0
 40
1.144744667940704
100
AcDbArc
 50
307.0573497426
 51
53.6294278184
  0
ARC
  5
1A8
330
1F
100
AcDbEntity
  8
KONTUR
100
AcDbCircle
 10
371.6165377387
 20
1974.520654273
 30
0.0
 40
2.342818578459199
100
AcDbArc
 50
269.5630130461
 51
308.8732564025
  0
ARC
  5
1A9
330
1F
100
AcDbEntity
  8
KONTUR
100
AcDbCircle
 10
368.1487541534
 20
1943.6908267509
 30
0.0
 40
28.69521697161894
100
AcDbArc
 50
83.0948455941
 51
98.2208388781
  0
ARC
  5
1AA
330
1F
100
AcDbEntity
  8
KONTUR
100
AcDbCircle
 10
363.9791383712
 20
1973.6238127671
 30
0.0
 40
1.534075559126852
100
AcDbArc
 50
187.0760591345
 51
272.4851386069
  0
ARC
  5
1AB
330
1F
100
AcDbEntity
  8
KONTUR
100
AcDbCircle
 10
363.6234328369
 20
1973.5796582299
 30
0.0
 40
1.175639999677719
100
AcDbArc
 50
109.4323485955
 51
187.0760591629
  0
ARC
  5
1AC
330
1F
100
AcDbEntity
  8
KONTUR
100
AcDbCircle
 10
356.0005667016
 20
1991.2929644149
 30
0.0
 40
18.11110136312769
100
AcDbArc
 50
293.5343406526
 51
298.1708732457
  0
ARC
  5
1AD
330
1F
100
AcDbEntity
  8
KONTUR
100
AcDbCircle
 10
363.1959296774
 20
1977.7862386708
 30
0.0
 40
2.807584327956674
100
AcDbArc
 50
298.8552671613
 51
321.1408136726
  0
ARC
  5
1AE
330
1F
100
AcDbEntity
  8
KONTUR
100
AcDbCircle
 10
363.3615913033
 20
1977.5166326265
 30
0.0
 40
2.511669943708004
100
AcDbArc
 50
323.559633309
 51
356.0736117731
  0
ARC
  5
1AF
330
1F
100
AcDbEntity
  8
KONTUR
100
AcDbCircle
 10
413.7720367608
 20
1988.5461323829
 30
0.0
 40
14.22032489730775
100
AcDbArc
 50
179.0333482778
 51
248.2762157062
  0
ARC
  5
1B0
330
1F
100
AcDbEntity
  8
KONTUR
100
AcDbCircle
 10
410.8790984693
 20
1986.9923572793
 30
0.0
 40
11.8951930679121
100
AcDbArc
 50
258.5051860546
 51
304.3163733328
  0
ARC
  5
1B1
330
1F
100
AcDbEntity
  8
KONTUR
100
AcDbCircle
 10
412.3346583049
 20
1984.7564767297
 30
0.0
 40
9.228090813480248
100
AcDbArc
 50
304.6783741113
 51
1.2764766245
  0
ARC
  5
1B2
330
1F
100
AcDbEntity
  8
KONTUR
100
AcDbCircle
 10
403.0379983107
 20
1985.2458132909
 30
0.0
 40
18.52463425738319
100
AcDbArc
 50
359.1222991187
 51
35.7371965301
  0
ARC
  5
1B3
330
1F
100
AcDbEntity
  8
KONTUR
100
AcDbCircle
 10
409.493177088
 20
1988.1527021761
 30
0.0
 40
11.67267709186164
100
AcDbArc
 50
42.6787896565
 51
91.576936742
  0
ARC
  5
1B4
330
1F
100
AcDbEntity
  8
KONTUR
100
AcDbCircle
 10
409.138339827
 20
1990.1410979284
 30
0.0
 40
9.679918948195787
100
AcDbArc
 50
89.8010384413
 51
188.0470902976
  0
ARC
  5
1B5
330
1F
100
AcDbEntity
  8
KONTUR
100
AcDbCircle
 10
413.5826794853
 20
1988.9829407372
 30
0.0
 40
13.17103938985023
100
AcDbArc
 50
350.34191932
 51
56.9740847993
  0
ARC
  5
1B6
330
1F
100
AcDbEntity
  8
KONTUR
100
AcDbCircle
 10
412.6122573906
 20
1986.6375277324
 30
0.0
 40
13.95544154325199
100
AcDbArc
 50
305.9462454843
 51
0.5572728012
  0
ARC
  5
1B7
330
1F
100
AcDbEntity
  8
KONTUR
100
AcDbCircle
 10
410.6577601365
 20
1988.2347867034
 30
0.0
 40
16.40854096561995
100
AcDbArc
 50
259.6845260691
 51
308.1978872478
  0
ARC
  5
1B8
330
1F
100
AcDbEntity
  8
KONTUR
100
AcDbCircle
 10
409.302824086
 20
1987.0895075251
 30
0.0
 40
15.08138723217315
100
AcDbArc
 50
191.9619722321
 51
263.9737437474
  0
ARC
  5
1B9
330
1F
100
AcDbEntity
  8
KONTUR
100
AcDbCircle
 10
409.8275129505
 20
1987.4999002754
 30
0.0
 40
15.68247402950854
100
AcDbArc
 50
86.2978960938
 51
193.0315315193
  0
ARC
  5
1BA
330
1F
100
AcDbEntity
  8
KONTUR
100
AcDbCircle
 10
410.7493276102
 20
1985.545051542
 30
0.0
 40
17.6048314174684
100
AcDbArc
 50
55.3406072651
 51
89.704530429
  0
ARC
  5
1BB
330
1F
100
AcDbEntity
  8
KONTUR
100
AcDbCircle
 10
356.9714858269
 20
1999.9899901459
 30
0.0
 40
1.365458100743245
100
AcDbArc
 50
16.3118941946
 51
129.9964834568
  0
ARC
  5
1BC
330
1F
100
AcDbEntity
  8
KONTUR
100
AcDbCircle
 10
348.0823521293
 20
1998.3621928632
 30
0.0
 40
10.3960459579926
100
AcDbArc
 50
0.5395045746
 51
11.1552746094
  0
ARC
  5
1BD
330
1F
100
AcDbEntity
  8
KONTUR
100
AcDbCircle
 10
377.725915028
 20
1999.1848341427
 30
0.0
 40
19.26161767894385
100
AcDbArc
 50
182.1563633555
 51
196.1314308898
  0
ARC
  5
1BE
330
1F
100
AcDbEntity
  8
KONTUR
100
AcDbCircle
 10
357.8501961807
 20
1993.5574788238
 30
0.0
 40
1.399903111271874
100
AcDbArc
 50
204.8489177139
 51
11.3571738078
  0
ARC
  5
1BF
330
1F
100
AcDbEntity
  8
KONTUR
100
AcDbCircle
 10
345.469753167
 20
1987.2859630494
 30
0.0
 40
12.47936331217919
100
AcDbArc
 50
27.0913787663
 51
93.4037548448
  0
ARC
  5
1C0
330
1F
100
AcDbEntity
  8
KONTUR
100
AcDbCircle
 10
344.9368299253
 20
1990.6324449751
 30
0.0
 40
9.113241004237292
100
AcDbArc
 50
91.3078218395
 51
161.0327204396
  0
ARC
  5
1C1
330
1F
100
AcDbEntity
  8
KONTUR
100
AcDbCircle
 10
351.8413995673
 20
1988.1025977975
 30
0.0
 40
16.46586195640392
100
AcDbArc
 50
160.516650172
 51
203.7516672404
  0
ARC
  5
1C2
330
1F
100
AcDbEntity
  8
KONTUR
100
AcDbCircle
 10
346.3240526133
 20
1985.4185372163
 30
0.0
 40
10.33742726434675
100
AcDbArc
 50
202.4519379539
 51
260.1941293991
  0
ARC
  5
1C3
330
1F
100
AcDbEntity
  8
KONTUR
100
AcDbCircle
 10
346.5339989359
 20
1984.2577998292
 30
0.0
 40
9.238266440754131
100
AcDbArc
 50
257.6842134415
 51
312.8608682707
  0
ARC
  5
1C4
330
1F
100
AcDbEntity
  8
KONTUR
100
AcDbCircle
 10
351.7225851413
 20
1979.0381680497
 30
0.0
 40
1.899745909718507
100
AcDbArc
 50
305.2146227661
 51
0.7735525212
  0
ARC
  5
1C5
330
1F
100
AcDbEntity
  8
KONTUR
100
AcDbCircle
 10
298.88236825
 20
1982.8302807048
 30
0.0
 40
54.86921568685742
100
AcDbArc
 50
356.0638697208
 51
2.6633018939
  0
ARC
  5
1C6
330
1F
100
AcDbEntity
  8
KONTUR
100
AcDbCircle
 10
352.9681672409
 20
1985.4068787444
 30
0.0
 40
0.7246527930277721
100
AcDbArc
 50
357.8639630715
 51
77.2379869176
  0
ARC
  5
1C7
330
1F
100
AcDbEntity
  8
KONTUR
100
AcDbCircle
 10
352.9739100397
 20
1991.22784209
 30
0.0
 40
5.11654054350813
100
AcDbArc
 50
245.3634241645
 51
271.7285216796
  0
ARC
  5
1C8
330
1F
100
AcDbEntity
  8
KONTUR
100
AcDbCircle
 10
351.3448244648
 20
1987.8924416308
 30
0.0
 40
1.408561842501863
100
AcDbArc
 50
79.0913149517
 51
249.0427844507
  0
ARC
  5
1C9
330
1F
100
AcDbEntity
  8
KONTUR
100
AcDbCircle
 10
354.8217460363
 20
2078.5167021905
 30
0.0
 40
89.29887740471932
100
AcDbArc
 50
267.9397312861
 51
273.043735047
  0
ARC
  5
1CA
330
1F
100
AcDbEntity
  8
KONTUR
100
AcDbCircle
 10
359.6653753997
 20
1987.9153853054
 30
0.0
 40
1.432052355681967
100
AcDbArc
 50
272.7256592245
 51
94.0851687946
  0
ARC
  5
1CB
330
1F
100
AcDbEntity
  8
KONTUR
100
AcDbCircle
 10
359.9185088139
 20
1985.4953623538
 30
0.0
 40
1.006740936181927
100
AcDbArc
 50
100.590883574
 51
190.1658888017
  0
ARC
  5
1CC
330
1F
100
AcDbEntity
  8
KONTUR
100
AcDbCircle
 10
-39.8406918827
 20
1975.0361627151
 30
0.0
 40
398.9007876942289
100
AcDbArc
 50
0.2931485453
 51
1.4769397701
  0
ARC
  5
1CD
330
1F
100
AcDbEntity
  8
KONTUR
100
AcDbCircle
 10
357.9666712885
 20
1976.9677686433
 30
0.0
 40
1.093681117501018
100
AcDbArc
 50
282.1852934853
 51
5.7368518472
  0
ARC
  5
1CE
330
1F
100
AcDbEntity
  8
KONTUR
100
AcDbCircle
 10
358.4425965661
 20
1972.3954881323
 30
0.0
 40
3.511801958373433
100
AcDbArc
 50
94.0017468451
 51
119.1893758579
  0
ARC
  5
1CF
330
1F
100
AcDbEntity
  8
KONTUR
100
AcDbCircle
 10
346.9928953498
 20
1988.4652835074
 30
0.0
 40
16.245365543828
100
AcDbArc
 50
291.8344206551
 51
306.8248717039
  0
ARC
  5
1D0
330
1F
100
AcDbEntity
  8
KONTUR
100
AcDbCircle
 10
345.5647840718
 20
1989.9793038548
 30
0.0
 40
18.19790907373625
100
AcDbArc
 50
259.20245446
 51
294.2360278692
  0
ARC
  5
1D1
330
1F
100
AcDbEntity
  8
KONTUR
100
AcDbCircle
 10
344.7160919831
 20
1986.8420983564
 30
0.0
 40
14.95927551986731
100
AcDbArc
 50
200.3274912467
 51
260.1444933823
  0
ARC
  5
1D2
330
1F
100
AcDbEntity
  8
KONTUR
100
AcDbCircle
 10
350.5507527154
 20
1987.0333107672
 30
0.0
 40
20.58009231162146
100
AcDbArc
 50
164.1282059391
 51
195.1768412117
  0
ARC
  5
1D3
330
1F
100
AcDbEntity
  8
KONTUR
100
AcDbCircle
 10
345.1664996836
 20
1987.8652602251
 30
0.0
 40
15.18846779859436
100
AcDbArc
 50
104.7909611426
 51
161.591305432
  0
ARC
  5
1D4
330
1F
100
AcDbEntity
  8
KONTUR
100
AcDbCircle
 10
346.2535421684
 20
1982.3453989873
 30
0.0
 40
20.80601868802932
100
AcDbArc
 50
63.7354831952
 51
103.8046049438
  0
ARC
  5
1D5
330
1F
100
AcDbEntity
  8
KONTUR
100
AcDbCircle
 10
355.7567676742
 20
2001.4162030726
 30
0.0
 40
0.5080792441208036
100
AcDbArc
 50
234.3352678632
 51
311.5631659849
  0
ARC
  5
1D6
330
1F
100
AcDbEntity
  8
KONTUR
100
AcDbCircle
 10
444.9950440087
 20
2001.0127307048
 30
0.0
 40
1.459624894585718
100
AcDbArc
 50
15.8945988336
 51
107.5048152118
  0
ARC
  5
1D7
330
1F
100
AcDbEntity
  8
KONTUR
100
AcDbCircle
 10
480.6316829149
 20
2003.2133202695
 30
0.0
 40
34.28015434113912
100
AcDbArc
 50
183.011313453
 51
192.4759856789
  0
ARC
  5
1D8
330
1F
100
AcDbEntity
  8
KONTUR
100
AcDbCircle
 10
445.7387976373
 20
1995.3317712474
 30
0.0
 40
1.499741486940551
100
AcDbArc
 50
209.9323782346
 51
18.5047769816
  0
ARC
  5
1D9
330
1F
100
AcDbEntity
  8
KONTUR
100
AcDbCircle
 10
438.6874400841
 20
1993.3139489518
 30
0.0
 40
5.890091325347886
100
AcDbArc
 50
12.446559139
 51
43.3682057464
  0
ARC
  5
1DA
330
1F
100
AcDbEntity
  8
KONTUR
100
AcDbCircle
 10
437.5101780977
 20
1992.2752093602
 30
0.0
 40
7.459385229450739
100
AcDbArc
 50
42.9588844973
 51
92.8105440309
  0
ARC
  5
1DB
330
1F
100
AcDbEntity
  8
KONTUR
100
AcDbCircle
 10
436.9548056028
 20
1994.8654499259
 30
0.0
 40
4.863869305514179
100
AcDbArc
 50
87.765826132
 51
146.5136262538
  0
ARC
  5
1DC
330
1F
100
AcDbEntity
  8
KONTUR
100
AcDbCircle
 10
435.8953382198
 20
1995.8630704933
 30
0.0
 40
3.438746745570124
100
AcDbArc
 50
150.6407192579
 51
253.848450679
  0
ARC
  5
1DD
330
1F
100
AcDbEntity
  8
KONTUR
100
AcDbCircle
 10
451.5765342551
 20
2028.486153575
 30
0.0
 40
39.59167188279041
100
AcDbArc
 50
245.1506121041
 51
255.130927987
  0
ARC
  5
1DE
330
1F
100
AcDbEntity
  8
KONTUR
100
AcDbCircle
 10
438.5538538457
 20
1980.5736833661
 30
0.0
 40
10.06243127687979
100
AcDbArc
 50
43.4943730857
 51
73.4695170447
  0
ARC
  5
1DF
330
1F
100
AcDbEntity
  8
KONTUR
100
AcDbCircle
 10
438.4769223916
 20
1981.0990452839
 30
0.0
 40
9.766293785990728
100
AcDbArc
 50
348.0135940147
 51
40.9469802019
  0
ARC
  5
1E0
330
1F
100
AcDbEntity
  8
KONTUR
100
AcDbCircle
 10
438.6778834026
 20
1981.98106325
 30
0.0
 40
9.794746239445619
100
AcDbArc
 50
289.1790656201
 51
342.7149083
  0
ARC
  5
1E1
330
1F
100
AcDbEntity
  8
KONTUR
100
AcDbCircle
 10
437.0503450535
 20
1988.5247033599
 30
0.0
 40
16.52123117107795
100
AcDbArc
 50
264.4175235663
 51
287.0543442898
  0
ARC
  5
1E2
330
1F
100
AcDbEntity
  8
KONTUR
100
AcDbCircle
 10
435.4388432199
 20
1981.1545722525
 30
0.0
 40
9.072744183450638
100
AcDbArc
 50
230.3404899967
 51
270.0274145043
  0
ARC
  5
1E3
330
1F
100
AcDbEntity
  8
KONTUR
100
AcDbCircle
 10
450.2912712704
 20
1984.2220406188
 30
0.0
 40
22.96025633813139
100
AcDbArc
 50
189.0515713186
 51
205.9639496664
  0
ARC
  5
1E4
330
1F
100
AcDbEntity
  8
KONTUR
100
AcDbCircle
 10
429.1342337255
 20
1980.9970416183
 30
0.0
 40
1.565920283738924
100
AcDbArc
 50
47.9234716042
 51
194.3153322522
  0
ARC
  5
1E5
330
1F
100
AcDbEntity
  8
KONTUR
100
AcDbCircle
 10
425.4562828735
 20
1978.7170602805
 30
0.0
 40
5.847802124413099
100
AcDbArc
 50
15.2400212175
 51
36.0609951633
  0
ARC
  5
1E6
330
1F
100
AcDbEntity
  8
KONTUR
100
AcDbCircle
 10
436.0599608743
 20
1981.6375116766
 30
0.0
 40
5.150746640222597
100
AcDbArc
 50
195.5785388232
 51
241.6521143683
  0
ARC
  5
1E7
330
1F
100
AcDbEntity
  8
KONTUR
100
AcDbCircle
 10
438.2475834178
 20
1983.1763271262
 30
0.0
 40
7.637767319173116
100
AcDbArc
 50
232.6535709107
 51
307.4387199771
  0
ARC
  5
1E8
330
1F
100
AcDbEntity
  8
KONTUR
100
AcDbCircle
 10
440.1088520098
 20
1980.0494076594
 30
0.0
 40
4.045670766301086
100
AcDbArc
 50
313.4408730777
 51
54.9324969774
  0
ARC
  5
1E9
330
1F
100
AcDbEntity
  8
KONTUR
100
AcDbCircle
 10
425.0905785671
 20
1950.5763325592
 30
0.0
 40
37.08884769041025
100
AcDbArc
 50
62.1214982095
 51
72.8072543619
  0
ARC
  5
1EA
330
1F
100
AcDbEntity
  8
KONTUR
100
AcDbCircle
 10
438.5218174225
 20
1997.028560413
 30
0.0
 40
11.29368644612304
100
AcDbArc
 50
222.4102912639
 51
257.3760202402
  0
ARC
  5
1EB
330
1F
100
AcDbEntity
  8
KONTUR
100
AcDbCircle
 10
436.0187362394
 20
1994.8363215338
 30
0.0
 40
7.967356970957053
100
AcDbArc
 50
122.0960792939
 51
222.9105300648
  0
ARC
  5
1EC
330
1F
100
AcDbEntity
  8
KONTUR
100
AcDbCircle
 10
438.1526080339
 20
1990.3467211899
 30
0.0
 40
12.91749989859569
100
AcDbArc
 50
66.5303468208
 51
119.5324722646
  0
ARC
  5
1ED
330
1F
100
AcDbEntity
  8
KONTUR
100
AcDbCircle
 10
443.7059573767
 20
2003.6278594453
 30
0.0
 40
1.489481022962453
100
AcDbArc
 50
254.0709490456
 51
304.7992946426
  0
LINE
  5
1EE
330
1F
100
AcDbEntity
  8
KONTUR
100
AcDbLine
 10
882.8839174212
 20
1963.6812652411
 30
0.0
 11
819.2697290815
 21
1963.6812652411
 31
0.0
  0
LINE
  5
1EF
330
1F
100
AcDbEntity
  8
KONTUR
100
AcDbLine
 10
819.2697290815
 20
1970.150674277
 30
0.0
 11
819.2697290815
 21
1963.6812652411
 31
0.0
  0
ARC
  5
1F0
330
1F
100
AcDbEntity
  8
KONTUR
100
AcDbCircle
 10
822.8178341317
 20
1972.9435880631
 30
0.0
 40
4.515464191444838
100
AcDbArc
 50
218.2082807071
 51
238.3907464293
  0
ARC
  5
1F1
330
1F
100
AcDbEntity
  8
KONTUR
100
AcDbCircle
 10
822.5738522034
 20
1972.5471445786
 30
0.0
 40
4.049959500000094
100
AcDbArc
 50
238.3907464293
 51
289.8005710805
  0
ARC
  5
1F2
330
1F
100
AcDbEntity
  8
KONTUR
100
AcDbCircle
 10
821.8186517919
 20
1974.6447288184
 30
0.0
 40
6.279351189331317
100
AcDbArc
 50
289.8005710805
 51
325.3436484526
  0
ARC
  5
1F3
330
1F
100
AcDbEntity
  8
KONTUR
100
AcDbCircle
 10
819.0353821805
 20
1975.3451758123
 30
0.0
 40
9.023431898379055
100
AcDbArc
 50
331.7481881037
 51
28.2518118963
  0
ARC
  5
1F4
330
1F
100
AcDbEntity
  8
KONTUR
100
AcDbCircle
 10
822.3680328236
 20
1976.1838818849
 30
0.0
 40
5.752253399476763
100
AcDbArc
 50
36.6356971957
 51
86.5650016128
  0
ARC
  5
1F5
330
1F
100
AcDbEntity
  8
KONTUR
100
AcDbCircle
 10
822.6273801026
 20
1977.7542605325
 30
0.0
 40
4.172412471564645
100
AcDbArc
 50
88.8284995959
 51
143.5838533452
  0
LINE
  5
1F6
330
1F
100
AcDbEntity
  8
KONTUR
100
AcDbLine
 10
819.2697290815
 20
1981.5202483328
 30
0.0
 11
819.2697290815
 21
1980.2311952215
 31
0.0
  0
LINE
  5
1F7
330
1F
100
AcDbEntity
  8
KONTUR
100
AcDbLine
 10
816.2322594565
 20
1981.5202483328
 30
0.0
 11
819.2697290815
 21
1981.5202483328
 31
0.0
  0
LINE
  5
1F8
330
1F
100
AcDbEntity
  8
KONTUR
100
AcDbLine
 10
816.2322594565
 20
1981.5202483328
 30
0.0
 11
816.2322594565
 21
1963.6812652411
 31
0.0
  0
LINE
  5
1F9
330
1F
100
AcDbEntity
  8
KONTUR
100
AcDbLine
 10
816.2322594565
 20
1963.6812652411
 30
0.0
 11
688.0351585315
 21
1963.6812652411
 31
0.0
  0
ARC
  5
1FA
330
1F
100
AcDbEntity
  8
KONTUR
100
AcDbCircle
 10
1119.7491379206
 20
2007.1812652411
 30
0.0
 40
433.9000000000001
100
AcDbArc
 50
180.4621742407
 51
185.7537691588
  0
LINE
  5
1FB
330
1F
100
AcDbEntity
  8
KONTUR
100
AcDbLine
 10
685.863254306
 20
2003.6812652411
 30
0.0
 11
805.0150557835
 21
2003.6812652411
 31
0.0
  0
LINE
  5
1FC
330
1F
100
AcDbEntity
  8
KONTUR
100
AcDbLine
 10
805.0150557835
 20
2003.6812652411
 30
0.0
 11
805.0150557835
 21
1986.8064339911
 31
0.0
  0
LINE
  5
1FD
330
1F
100
AcDbEntity
  8
KONTUR
100
AcDbLine
 10
805.0150557835
 20
1986.8064339911
 30
0.0
 11
808.0525254085
 21
1986.8064339911
 31
0.0
  0
LINE
  5
1FE
330
1F
100
AcDbEntity
  8
KONTUR
100
AcDbLine
 10
808.0525254085
 20
2003.6812652411
 30
0.0
 11
808.0525254085
 21
1986.8064339911
 31
0.0
  0
LINE
  5
1FF
330
1F
100
AcDbEntity
  8
KONTUR
100
AcDbLine
 10
808.0525254085
 20
2003.6812652411
 30
0.0
 11
880.8839174212
 21
2003.6812652411
 31
0.0
  0
ARC
  5
200
330
1F
100
AcDbEntity
  8
KONTUR
100
AcDbCircle
 10
880.8839174212
 20
2001.6812652411
 30
0.0
 40
1.999999999999886
100
AcDbArc
 50
359.9999999999
 51
90.0
  0
LINE
  5
201
330
1F
100
AcDbEntity
  8
KONTUR
100
AcDbLine
 10
882.8839174212
 20
2001.6812652411
 30
0.0
 11
882.8839174212
 21
1963.6812652411
 31
0.0
  0
CIRCLE
  5
202
330
1F
100
AcDbEntity
  8
KONTUR
100
AcDbCircle
 10
865.8460037774
 20
1985.4334174192
 30
0.0
 40
3.0
  0
LINE
  5
203
330
1F
100
AcDbEntity
  8
KONTUR
100
AcDbLine
 10
811.8472827262
 20
1968.5585861692
 30
0.0
 11
814.8804190035
 21
1968.5585861692
 31
0.0
  0
LINE
  5
204
330
1F
100
AcDbEntity
  8
KONTUR
100
AcDbLine
 10
814.8804190035
 20
1977.7736436514
 30
0.0
 11
814.8804190035
 21
1968.5585861692
 31
0.0
  0
ARC
  5
205
330
1F
100
AcDbEntity
  8
KONTUR
100
AcDbCircle
 10
810.9598196154
 20
1977.9799282836
 30
0.0
 40
3.926022530707831
100
AcDbArc
 50
356.9881263247
 51
155.7884035763
  0
ARC
  5
206
330
1F
100
AcDbEntity
  8
KONTUR
100
AcDbCircle
 10
803.8376926231
 20
1978.0441828927
 30
0.0
 40
3.864126205343362
100
AcDbArc
 50
23.5811993582
 51
147.3519132624
  0
LINE
  5
207
330
1F
100
AcDbEntity
  8
KONTUR
100
AcDbLine
 10
800.5840986473
 20
1981.5136700412
 30
0.0
 11
800.5840986473
 21
1980.1287925856
 31
0.0
  0
LINE
  5
208
330
1F
100
AcDbEntity
  8
KONTUR
100
AcDbLine
 10
797.5466290223
 20
1981.5136700412
 30
0.0
 11
800.5840986473
 21
1981.5136700412
 31
0.0
  0
LINE
  5
209
330
1F
100
AcDbEntity
  8
KONTUR
100
AcDbLine
 10
797.5466290223
 20
1981.5136700412
 30
0.0
 11
797.5466290223
 21
1968.5585861692
 31
0.0
  0
LINE
  5
20A
330
1F
100
AcDbEntity
  8
KONTUR
100
AcDbLine
 10
797.5466290223
 20
1968.5585861692
 30
0.0
 11
800.5840986473
 21
1968.5585861692
 31
0.0
  0
LINE
  5
20B
330
1F
100
AcDbEntity
  8
KONTUR
100
AcDbLine
 10
800.5840986473
 20
1976.8116102517
 30
0.0
 11
800.5840986473
 21
1968.5585861692
 31
0.0
  0
ARC
  5
20C
330
1F
100
AcDbEntity
  8
KONTUR
100
AcDbCircle
 10
802.6428280598
 20
1976.8116102517
 30
0.0
 40
2.058729412500043
100
AcDbArc
 50
0.0
 51
180.0
  0
LINE
  5
20D
330
1F
100
AcDbEntity
  8
KONTUR
100
AcDbLine
 10
804.7015574723
 20
1976.8116102517
 30
0.0
 11
804.7015574723
 21
1968.5585861692
 31
0.0
  0
LINE
  5
20E
330
1F
100
AcDbEntity
  8
KONTUR
100
AcDbLine
 10
804.7015574723
 20
1968.5585861692
 30
0.0
 11
807.7298239012
 21
1968.5585861692
 31
0.0
  0
LINE
  5
20F
330
1F
100
AcDbEntity
  8
KONTUR
100
AcDbLine
 10
807.7298239012
 20
1976.8116102517
 30
0.0
 11
807.7298239012
 21
1968.5585861692
 31
0.0
  0
ARC
  5
210
330
1F
100
AcDbEntity
  8
KONTUR
100
AcDbCircle
 10
809.7885533137
 20
1976.8116102517
 30
0.0
 40
2.058729412500043
100
AcDbArc
 50
0.0
 51
180.0
  0
LINE
  5
211
330
1F
100
AcDbEntity
  8
KONTUR
100
AcDbLine
 10
811.8472827262
 20
1976.8116102517
 30
0.0
 11
811.8472827262
 21
1968.5585861692
 31
0.0
  0
LINE
  5
212
330
1F
100
AcDbEntity
  8
KONTUR
100
AcDbLine
 10
858.9115076824
 20
1968.5585861692
 30
0.0
 11
861.3177195062
 21
1968.5585861692
 31
0.0
  0
LINE
  5
213
330
1F
100
AcDbEntity
  8
KONTUR
100
AcDbLine
 10
861.3177195062
 20
1970.9995583987
 30
0.0
 11
861.3177195062
 21
1968.5585861692
 31
0.0
  0
LINE
  5
214
330
1F
100
AcDbEntity
  8
KONTUR
100
AcDbLine
 10
860.2614941824
 20
1970.9995583987
 30
0.0
 11
861.3177195062
 21
1970.9995583987
 31
0.0
  0
ARC
  5
215
330
1F
100
AcDbEntity
  8
KONTUR
100
AcDbCircle
 10
860.2614941824
 20
1972.0120482737
 30
0.0
 40
1.012489875000142
100
AcDbArc
 50
180.0000000003
 51
270.0
  0
LINE
  5
216
330
1F
100
AcDbEntity
  8
KONTUR
100
AcDbLine
 10
859.2490043074
 20
1979.0148856259
 30
0.0
 11
859.2490043074
 21
1972.0120482737
 31
0.0
  0
LINE
  5
217
330
1F
100
AcDbEntity
  8
KONTUR
100
AcDbLine
 10
859.2490043074
 20
1979.0148856259
 30
0.0
 11
861.3177195062
 21
1979.0148856259
 31
0.0
  0
LINE
  5
218
330
1F
100
AcDbEntity
  8
KONTUR
100
AcDbLine
 10
861.3177195062
 20
1979.0148856259
 30
0.0
 11
861.3177195062
 21
1981.2666133935
 31
0.0
  0
LINE
  5
219
330
1F
100
AcDbEntity
  8
KONTUR
100
AcDbLine
 10
859.2490043074
 20
1981.2666133935
 30
0.0
 11
861.3177195062
 21
1981.2666133935
 31
0.0
  0
LINE
  5
21A
330
1F
100
AcDbEntity
  8
KONTUR
100
AcDbLine
 10
859.2490043074
 20
1985.4334174192
 30
0.0
 11
859.2490043074
 21
1981.2666133935
 31
0.0
  0
LINE
  5
21B
330
1F
100
AcDbEntity
  8
KONTUR
100
AcDbLine
 10
856.2115346824
 20
1985.4334174192
 30
0.0
 11
859.2490043074
 21
1985.4334174192
 31
0.0
  0
LINE
  5
21C
330
1F
100
AcDbEntity
  8
KONTUR
100
AcDbLine
 10
856.2115346824
 20
1985.4334174192
 30
0.0
 11
856.2115346824
 21
1981.2666133935
 31
0.0
  0
LINE
  5
21D
330
1F
100
AcDbEntity
  8
KONTUR
100
AcDbLine
 10
854.5613481722
 20
1981.2666133935
 30
0.0
 11
856.2115346824
 21
1981.2666133935
 31
0.0
  0
LINE
  5
21E
330
1F
100
AcDbEntity
  8
KONTUR
100
AcDbLine
 10
854.5613481722
 20
1979.014885626
 30
0.0
 11
854.5613481722
 21
1981.2666133935
 31
0.0
  0
LINE
  5
21F
330
1F
100
AcDbEntity
  8
KONTUR
100
AcDbLine
 10
854.5613481722
 20
1979.014885626
 30
0.0
 11
856.2115346824
 21
1979.014885626
 31
0.0
  0
LINE
  5
220
330
1F
100
AcDbEntity
  8
KONTUR
100
AcDbLine
 10
856.2115346824
 20
1979.014885626
 30
0.0
 11
856.2115346824
 21
1971.2585591692
 31
0.0
  0
ARC
  5
221
330
1F
100
AcDbEntity
  8
KONTUR
100
AcDbCircle
 10
858.9115076824
 20
1971.2585591692
 30
0.0
 40
2.699973000000227
100
AcDbArc
 50
180.0
 51
270.0
  0
LINE
  5
222
330
1F
100
AcDbEntity
  8
KONTUR
100
AcDbLine
 10
850.5507672877
 20
1973.3253019683
 30
0.0
 11
853.4541686353
 21
1973.3253019683
 31
0.0
  0
ARC
  5
223
330
1F
100
AcDbEntity
  8
KONTUR
100
AcDbCircle
 10
850.5507672877
 20
1973.2578026433
 30
0.0
 40
0.0674993249997442
100
AcDbArc
 50
89.9999999997
 51
176.432330356
  0
ARC
  5
224
330
1F
100
AcDbEntity
  8
KONTUR
100
AcDbCircle
 10
848.1225958329
 20
1973.4091947206
 30
0.0
 40
2.365387062651991
100
AcDbArc
 50
187.7930668285
 51
356.4323303556
  0
LINE
  5
225
330
1F
100
AcDbEntity
  8
KONTUR
100
AcDbLine
 10
845.6118040993
 20
1974.3738918845
 30
0.0
 11
845.7790548803
 21
1973.0884584431
 31
0.0
  0
ARC
  5
226
330
1F
100
AcDbEntity
  8
KONTUR
100
AcDbCircle
 10
852.3053163913
 20
1975.2448005773
 30
0.0
 40
6.749932499998516
100
AcDbArc
 50
171.5166951022
 51
187.4132429007
  0
LINE
  5
227
330
1F
100
AcDbEntity
  8
KONTUR
100
AcDbLine
 10
845.7851172946
 20
1977.2856704394
 30
0.0
 11
845.6292356403
 21
1976.2405588611
 31
0.0
  0
ARC
  5
228
330
1F
100
AcDbEntity
  8
KONTUR
100
AcDbCircle
 10
848.1224421349
 20
1976.9213619673
 30
0.0
 40
2.365546040987995
100
AcDbArc
 50
3.5710103889
 51
171.1408433078
  0
ARC
  5
229
330
1F
100
AcDbEntity
  8
KONTUR
100
AcDbCircle
 10
850.5507634281
 20
1977.0729055258
 30
0.0
 40
0.0674993249999716
100
AcDbArc
 50
183.5710103784
 51
270.0
  0
LINE
  5
22A
330
1F
100
AcDbEntity
  8
KONTUR
100
AcDbLine
 10
853.4346890659
 20
1977.0054062008
 30
0.0
 11
850.5507634281
 21
1977.0054062008
 31
0.0
  0
ARC
  5
22B
330
1F
100
AcDbEntity
  8
KONTUR
100
AcDbCircle
 10
853.4346890659
 20
1977.0729055258
 30
0.0
 40
0.0674993249999716
100
AcDbArc
 50
269.9999999998
 51
23.5021874293
  0
LINE
  5
22C
330
1F
100
AcDbEntity
  8
KONTUR
100
AcDbLine
 10
853.0742168197
 20
1978.60897181
 30
0.0
 11
853.4965889743
 21
1977.099823182
 31
0.0
  0
ARC
  5
22D
330
1F
100
AcDbEntity
  8
KONTUR
100
AcDbCircle
 10
848.0525667332
 20
1976.4665710493
 30
0.0
 40
5.45956505690271
100
AcDbArc
 50
23.1046864546
 51
171.6932313319
  0
LINE
  5
22E
330
1F
100
AcDbEntity
  8
KONTUR
100
AcDbLine
 10
842.4993706878
 20
1976.2836376992
 30
0.0
 11
842.6502794552
 21
1977.2553313277
 31
0.0
  0
ARC
  5
22F
330
1F
100
AcDbEntity
  8
KONTUR
100
AcDbCircle
 10
849.1693438942
 20
1975.2477582759
 30
0.0
 40
6.749932500000754
100
AcDbArc
 50
171.1722090026
 51
187.8084014418
  0
LINE
  5
230
330
1F
100
AcDbEntity
  8
KONTUR
100
AcDbLine
 10
842.636077153
 20
1973.2071212951
 30
0.0
 11
842.4819972445
 21
1974.3307067284
 31
0.0
  0
ARC
  5
231
330
1F
100
AcDbEntity
  8
KONTUR
100
AcDbCircle
 10
848.0636701562
 20
1973.9123815058
 30
0.0
 40
5.473221882286275
100
AcDbArc
 50
187.4035187804
 51
336.3436607706
  0
LINE
  5
232
330
1F
100
AcDbEntity
  8
KONTUR
100
AcDbLine
 10
853.5158529618
 20
1973.2303945653
 30
0.0
 11
853.0769696583
 21
1971.7162517566
 31
0.0
  0
ARC
  5
233
330
1F
100
AcDbEntity
  8
KONTUR
100
AcDbCircle
 10
853.4541686353
 20
1973.2578026433
 30
0.0
 40
0.0674993249988347
100
AcDbArc
 50
336.0430789801
 51
90.0000000075
  0
LINE
  5
234
330
1F
100
AcDbEntity
  8
KONTUR
100
AcDbLine
 10
778.4460805447
 20
1973.3253019683
 30
0.0
 11
781.3494818923
 21
1973.3253019683
 31
0.0
  0
ARC
  5
235
330
1F
100
AcDbEntity
  8
KONTUR
100
AcDbCircle
 10
778.4460805447
 20
1973.2578026433
 30
0.0
 40
0.0674993249993587
100
AcDbArc
 50
90.0000000009
 51
176.4323303556
  0
ARC
  5
236
330
1F
100
AcDbEntity
  8
KONTUR
100
AcDbCircle
 10
776.0179090898
 20
1973.4091947206
 30
0.0
 40
2.365387062652077
100
AcDbArc
 50
187.7930668285
 51
356.4323303557
  0
LINE
  5
237
330
1F
100
AcDbEntity
  8
KONTUR
100
AcDbLine
 10
773.5071173563
 20
1974.3738918845
 30
0.0
 11
773.6743681372
 21
1973.0884584431
 31
0.0
  0
ARC
  5
238
330
1F
100
AcDbEntity
  8
KONTUR
100
AcDbCircle
 10
780.2006296483
 20
1975.2448005773
 30
0.0
 40
6.749932499998716
100
AcDbArc
 50
171.5166951022
 51
187.4132429007
  0
LINE
  5
239
330
1F
100
AcDbEntity
  8
KONTUR
100
AcDbLine
 10
773.6804305515
 20
1977.2856704394
 30
0.0
 11
773.5245488972
 21
1976.2405588611
 31
0.0
  0
ARC
  5
23A
330
1F
100
AcDbEntity
  8
KONTUR
100
AcDbCircle
 10
776.0177553918
 20
1976.9213619673
 30
0.0
 40
2.365546040987918
100
AcDbArc
 50
3.5710103888
 51
171.1408433078
  0
ARC
  5
23B
330
1F
100
AcDbEntity
  8
KONTUR
100
AcDbCircle
 10
778.446076685
 20
1977.0729055258
 30
0.0
 40
0.067499325000246
100
AcDbArc
 50
183.5710103933
 51
270.0000000002
  0
LINE
  5
23C
330
1F
100
AcDbEntity
  8
KONTUR
100
AcDbLine
 10
781.3300023229
 20
1977.0054062008
 30
0.0
 11
778.446076685
 21
1977.0054062008
 31
0.0
  0
ARC
  5
23D
330
1F
100
AcDbEntity
  8
KONTUR
100
AcDbCircle
 10
781.3300023229
 20
1977.0729055258
 30
0.0
 40
0.067499325000199
100
AcDbArc
 50
269.9999999997
 51
23.5021874291
  0
LINE
  5
23E
330
1F
100
AcDbEntity
  8
KONTUR
100
AcDbLine
 10
780.9695300766
 20
1978.60897181
 30
0.0
 11
781.3919022313
 21
1977.099823182
 31
0.0
  0
ARC
  5
23F
330
1F
100
AcDbEntity
  8
KONTUR
100
AcDbCircle
 10
775.9478799901
 20
1976.4665710493
 30
0.0
 40
5.459565056902233
100
AcDbArc
 50
23.1046864546
 51
171.6932313319
  0
LINE
  5
240
330
1F
100
AcDbEntity
  8
KONTUR
100
AcDbLine
 10
770.3946839447
 20
1976.2836376992
 30
0.0
 11
770.5455927122
 21
1977.2553313277
 31
0.0
  0
ARC
  5
241
330
1F
100
AcDbEntity
  8
KONTUR
100
AcDbCircle
 10
777.0646571512
 20
1975.2477582759
 30
0.0
 40
6.749932500000469
100
AcDbArc
 50
171.1722090027
 51
187.8084014418
  0
LINE
  5
242
330
1F
100
AcDbEntity
  8
KONTUR
100
AcDbLine
 10
770.53139041
 20
1973.2071212951
 30
0.0
 11
770.3773105014
 21
1974.3307067284
 31
0.0
  0
ARC
  5
243
330
1F
100
AcDbEntity
  8
KONTUR
100
AcDbCircle
 10
775.9589834132
 20
1973.9123815058
 30
0.0
 40
5.473221882286351
100
AcDbArc
 50
187.4035187804
 51
336.3436607706
  0
LINE
  5
244
330
1F
100
AcDbEntity
  8
KONTUR
100
AcDbLine
 10
781.4111662188
 20
1973.2303945653
 30
0.0
 11
780.9722829152
 21
1971.7162517566
 31
0.0
  0
ARC
  5
245
330
1F
100
AcDbEntity
  8
KONTUR
100
AcDbCircle
 10
781.3494818923
 20
1973.2578026433
 30
0.0
 40
0.0674993250004263
100
AcDbArc
 50
336.0430790016
 51
89.9999999971
  0
LINE
  5
246
330
1F
100
AcDbEntity
  8
KONTUR
100
AcDbLine
 10
771.0211547947
 20
1991.5731497902
 30
0.0
 11
773.9245561423
 21
1991.5731497902
 31
0.0
  0
ARC
  5
247
330
1F
100
AcDbEntity
  8
KONTUR
100
AcDbCircle
 10
771.0211547947
 20
1991.5056504652
 30
0.0
 40
0.0674993249992895
100
AcDbArc
 50
90.0
 51
176.432330356
  0
ARC
  5
248
330
1F
100
AcDbEntity
  8
KONTUR
100
AcDbCircle
 10
768.5929833398
 20
1991.6570425425
 30
0.0
 40
2.365387062652077
100
AcDbArc
 50
187.7930668285
 51
356.4323303557
  0
LINE
  5
249
330
1F
100
AcDbEntity
  8
KONTUR
100
AcDbLine
 10
766.0821916063
 20
1992.6217397064
 30
0.0
 11
766.2494423872
 21
1991.336306265
 31
0.0
  0
ARC
  5
24A
330
1F
100
AcDbEntity
  8
KONTUR
100
AcDbCircle
 10
772.7757038983
 20
1993.4926483992
 30
0.0
 40
6.749932500000233
100
AcDbArc
 50
171.5166951021
 51
187.4132429007
  0
LINE
  5
24B
330
1F
100
AcDbEntity
  8
KONTUR
100
AcDbLine
 10
766.2555048015
 20
1995.5335182613
 30
0.0
 11
766.0996231472
 21
1994.488406683
 31
0.0
  0
ARC
  5
24C
330
1F
100
AcDbEntity
  8
KONTUR
100
AcDbCircle
 10
768.5928296418
 20
1995.1692097892
 30
0.0
 40
2.365546040988339
100
AcDbArc
 50
3.5710103889
 51
171.1408433078
  0
ARC
  5
24D
330
1F
100
AcDbEntity
  8
KONTUR
100
AcDbCircle
 10
771.021150935
 20
1995.3207533477
 30
0.0
 40
0.067499325000204
100
AcDbArc
 50
183.5710103881
 51
270.0000000004
  0
LINE
  5
24E
330
1F
100
AcDbEntity
  8
KONTUR
100
AcDbLine
 10
773.9050765729
 20
1995.2532540227
 30
0.0
 11
771.021150935
 21
1995.2532540227
 31
0.0
  0
ARC
  5
24F
330
1F
100
AcDbEntity
  8
KONTUR
100
AcDbCircle
 10
773.9050765729
 20
1995.3207533477
 30
0.0
 40
0.0674993249999564
100
AcDbArc
 50
270.0
 51
23.5021874293
  0
LINE
  5
250
330
1F
100
AcDbEntity
  8
KONTUR
100
AcDbLine
 10
773.5446043266
 20
1996.8568196319
 30
0.0
 11
773.9669764813
 21
1995.3476710039
 31
0.0
  0
ARC
  5
251
330
1F
100
AcDbEntity
  8
KONTUR
100
AcDbCircle
 10
768.5229542401
 20
1994.7144188712
 30
0.0
 40
5.459565056902501
100
AcDbArc
 50
23.1046864546
 51
171.6932313319
  0
LINE
  5
252
330
1F
100
AcDbEntity
  8
KONTUR
100
AcDbLine
 10
762.9697581947
 20
1994.5314855211
 30
0.0
 11
763.1206669622
 21
1995.5031791496
 31
0.0
  0
ARC
  5
253
330
1F
100
AcDbEntity
  8
KONTUR
100
AcDbCircle
 10
769.6397314012
 20
1993.4956060978
 30
0.0
 40
6.749932499999588
100
AcDbArc
 50
171.1722090027
 51
187.8084014418
  0
LINE
  5
254
330
1F
100
AcDbEntity
  8
KONTUR
100
AcDbLine
 10
763.10646466
 20
1991.454969117
 30
0.0
 11
762.9523847514
 21
1992.5785545503
 31
0.0
  0
ARC
  5
255
330
1F
100
AcDbEntity
  8
KONTUR
100
AcDbCircle
 10
768.5340576632
 20
1992.1602293277
 30
0.0
 40
5.47322188228617
100
AcDbArc
 50
187.4035187804
 51
336.3436607706
  0
LINE
  5
256
330
1F
100
AcDbEntity
  8
KONTUR
100
AcDbLine
 10
773.9862404688
 20
1991.4782423872
 30
0.0
 11
773.5473571652
 21
1989.9640995785
 31
0.0
  0
ARC
  5
257
330
1F
100
AcDbEntity
  8
KONTUR
100
AcDbCircle
 10
773.9245561423
 20
1991.5056504652
 30
0.0
 40
0.0674993249999133
100
AcDbArc
 50
336.0430789964
 51
89.9999999998
  0
ARC
  5
258
330
1F
100
AcDbEntity
  8
KONTUR
100
AcDbCircle
 10
834.7022016198
 20
1977.3951850934
 30
0.0
 40
4.777803792281276
100
AcDbArc
 50
137.7094561079
 51
177.2554126719
  0
LINE
  5
259
330
1F
100
AcDbEntity
  8
KONTUR
100
AcDbLine
 10
829.9298783771
 20
1977.4651585671
 30
0.0
 11
829.9298783771
 21
1977.6239643425
 31
0.0
  0
LINE
  5
25A
330
1F
100
AcDbEntity
  8
KONTUR
100
AcDbLine
 10
833.0216510657
 20
1977.4651585671
 30
0.0
 11
829.9298783771
 21
1977.4651585671
 31
0.0
  0
LINE
  5
25B
330
1F
100
AcDbEntity
  8
KONTUR
100
AcDbLine
 10
833.0216510657
 20
1977.6345435554
 30
0.0
 11
833.0216510657
 21
1977.4651585671
 31
0.0
  0
ARC
  5
25C
330
1F
100
AcDbEntity
  8
KONTUR
100
AcDbCircle
 10
834.7804426209
 20
1977.6942169937
 30
0.0
 40
1.759803583942531
100
AcDbArc
 50
133.2347973525
 51
181.9432235229
  0
ARC
  5
25D
330
1F
100
AcDbEntity
  8
KONTUR
100
AcDbCircle
 10
835.4012678465
 20
1976.1317301782
 30
0.0
 40
3.38038474304811
100
AcDbArc
 50
74.8720488201
 51
122.7010558959
  0
ARC
  5
25E
330
1F
100
AcDbEntity
  8
KONTUR
100
AcDbCircle
 10
835.9944079303
 20
1978.1022211953
 30
0.0
 40
1.324670321588146
100
AcDbArc
 50
282.6039688549
 51
77.3960311451
  0
ARC
  5
25F
330
1F
100
AcDbEntity
  8
KONTUR
100
AcDbCircle
 10
834.5364261011
 20
1981.475278318
 30
0.0
 40
4.982156475659792
100
AcDbArc
 50
273.6255557556
 51
290.5276431155
  0
LINE
  5
260
330
1F
100
AcDbEntity
  8
KONTUR
100
AcDbLine
 10
834.85147608
 20
1976.5030930179
 30
0.0
 11
833.1872817621
 21
1976.2744045636
 31
0.0
  0
ARC
  5
261
330
1F
100
AcDbEntity
  8
KONTUR
100
AcDbCircle
 10
833.9017488075
 20
1971.2801024477
 30
0.0
 40
5.045147845525799
100
AcDbArc
 50
98.1412921492
 51
127.0168745493
  0
ARC
  5
262
330
1F
100
AcDbEntity
  8
KONTUR
100
AcDbCircle
 10
833.3327543504
 20
1972.2817878494
 30
0.0
 40
3.905614219593075
100
AcDbArc
 50
129.1995309556
 51
275.8825513548
  0
ARC
  5
263
330
1F
100
AcDbEntity
  8
KONTUR
100
AcDbCircle
 10
833.2654158932
 20
1974.1985763438
 30
0.0
 40
5.820650568845518
100
AcDbArc
 50
274.608032815
 51
305.8919140692
  0
LINE
  5
264
330
1F
100
AcDbEntity
  8
KONTUR
100
AcDbLine
 10
837.4384730596
 20
1970.1457967298
 30
0.0
 11
836.6778190457
 21
1969.4831253823
 31
0.0
  0
LINE
  5
265
330
1F
100
AcDbEntity
  8
KONTUR
100
AcDbLine
 10
837.4384730596
 20
1970.1457967298
 30
0.0
 11
837.4384730596
 21
1969.6802958891
 31
0.0
  0
ARC
  5
266
330
1F
100
AcDbEntity
  8
KONTUR
100
AcDbCircle
 10
838.9679844627
 20
1969.6861848106
 30
0.0
 40
1.529522739838563
100
AcDbArc
 50
180.2205989995
 51
215.7221499347
  0
LINE
  5
267
330
1F
100
AcDbEntity
  8
KONTUR
100
AcDbLine
 10
837.7262293807
 20
1968.7931651423
 30
0.0
 11
841.216533283
 21
1968.7931651423
 31
0.0
  0
LINE
  5
268
330
1F
100
AcDbEntity
  8
KONTUR
100
AcDbLine
 10
841.216533283
 20
1968.7931651423
 30
0.0
 11
841.216533283
 21
1969.4076560497
 31
0.0
  0
ARC
  5
269
330
1F
100
AcDbEntity
  8
KONTUR
100
AcDbCircle
 10
841.9395862099
 20
1970.7741590814
 30
0.0
 40
1.546006491148038
100
AcDbArc
 50
182.1856446511
 51
242.1154981228
  0
LINE
  5
26A
330
1F
100
AcDbEntity
  8
KONTUR
100
AcDbLine
 10
840.3947044337
 20
1978.097073924
 30
0.0
 11
840.3947044337
 21
1970.7151983447
 31
0.0
  0
ARC
  5
26B
330
1F
100
AcDbEntity
  8
KONTUR
100
AcDbCircle
 10
837.000451567
 20
1978.1324191242
 30
0.0
 40
3.39443689094297
100
AcDbArc
 50
359.4033863461
 51
71.3151613485
  0
ARC
  5
26C
330
1F
100
AcDbEntity
  8
KONTUR
100
AcDbCircle
 10
835.2998904699
 20
1974.1392395234
 30
0.0
 40
7.729071557808235
100
AcDbArc
 50
68.8557376938
 51
91.4496567651
  0
ARC
  5
26D
330
1F
100
AcDbEntity
  8
KONTUR
100
AcDbCircle
 10
843.1569748973
 20
1909.7352690645
 30
0.0
 40
72.57867144217529
100
AcDbArc
 50
96.370094023
 51
98.1717232191
  0
ARC
  5
26E
330
1F
100
AcDbEntity
  8
KONTUR
100
AcDbCircle
 10
840.2643697497
 20
1966.8032514149
 30
0.0
 40
16.53409300297046
100
AcDbArc
 50
116.6793542866
 51
123.3784651322
  0
LINE
  5
26F
330
1F
100
AcDbEntity
  8
KONTUR
100
AcDbLine
 10
793.1687537889
 20
1979.4642773312
 30
0.0
 11
793.1687537889
 21
1980.9679397715
 31
0.0
  0
ARC
  5
270
330
1F
100
AcDbEntity
  8
KONTUR
100
AcDbCircle
 10
789.4902110336
 20
1975.3084422715
 30
0.0
 40
6.749932500000151
100
AcDbArc
 50
56.9770620645
 51
63.5782769131
  0
LINE
  5
271
330
1F
100
AcDbEntity
  8
KONTUR
100
AcDbLine
 10
792.4937605389
 20
1978.7892840812
 30
0.0
 11
792.4937605389
 21
1981.3532978632
 31
0.0
  0
LINE
  5
272
330
1F
100
AcDbEntity
  8
KONTUR
100
AcDbLine
 10
792.4937605389
 20
1978.7892840812
 30
0.0
 11
789.8277076586
 21
1976.1232312009
 31
0.0
  0
LINE
  5
273
330
1F
100
AcDbEntity
  8
KONTUR
100
AcDbLine
 10
789.8277076586
 20
1979.8935993422
 30
0.0
 11
789.8277076586
 21
1976.1232312009
 31
0.0
  0
LINE
  5
274
330
1F
100
AcDbEntity
  8
KONTUR
100
AcDbLine
 10
789.8277076586
 20
1979.8935993422
 30
0.0
 11
791.6407391909
 21
1981.7066308745
 31
0.0
  0
ARC
  5
275
330
1F
100
AcDbEntity
  8
KONTUR
100
AcDbCircle
 10
789.4902110336
 20
1975.3084422715
 30
0.0
 40
6.749932500001687
100
AcDbArc
 50
71.4217230869
 51
78.0229379355
  0
LINE
  5
276
330
1F
100
AcDbEntity
  8
KONTUR
100
AcDbLine
 10
789.8277076586
 20
1980.8481839509
 30
0.0
 11
790.8909575667
 21
1981.911433859
 31
0.0
  0
LINE
  5
277
330
1F
100
AcDbEntity
  8
KONTUR
100
AcDbLine
 10
789.8277076586
 20
1982.0499320759
 30
0.0
 11
789.8277076586
 21
1980.8481839509
 31
0.0
  0
ARC
  5
278
330
1F
100
AcDbEntity
  8
KONTUR
100
AcDbCircle
 10
789.4902110336
 20
1975.3084422715
 30
0.0
 40
6.749932500001906
100
AcDbArc
 50
87.1340160174
 51
92.8659839826
  0
LINE
  5
279
330
1F
100
AcDbEntity
  8
KONTUR
100
AcDbLine
 10
789.1527144086
 20
1982.0499320759
 30
0.0
 11
789.1527144086
 21
1980.8481839509
 31
0.0
  0
LINE
  5
27A
330
1F
100
AcDbEntity
  8
KONTUR
100
AcDbLine
 10
789.1527144086
 20
1980.8481839509
 30
0.0
 11
788.0894645004
 21
1981.911433859
 31
0.0
  0
ARC
  5
27B
330
1F
100
AcDbEntity
  8
KONTUR
100
AcDbCircle
 10
789.4902110336
 20
1975.3084422715
 30
0.0
 40
6.749932500001362
100
AcDbArc
 50
101.9770620645
 51
108.578276913
  0
LINE
  5
27C
330
1F
100
AcDbEntity
  8
KONTUR
100
AcDbLine
 10
789.1527144086
 20
1979.8935993422
 30
0.0
 11
787.3396828763
 21
1981.7066308745
 31
0.0
  0
LINE
  5
27D
330
1F
100
AcDbEntity
  8
KONTUR
100
AcDbLine
 10
789.1527144086
 20
1979.8935993422
 30
0.0
 11
789.1527144086
 21
1976.1232312009
 31
0.0
  0
LINE
  5
27E
330
1F
100
AcDbEntity
  8
KONTUR
100
AcDbLine
 10
786.4866615282
 20
1978.7892840812
 30
0.0
 11
789.1527144086
 21
1976.1232312009
 31
0.0
  0
ARC
  5
27F
330
1F
100
AcDbEntity
  8
KONTUR
100
AcDbCircle
 10
789.4902110336
 20
1975.3084422715
 30
0.0
 40
6.749932500000289
100
AcDbArc
 50
116.4217230869
 51
123.0229379355
  0
LINE
  5
280
330
1F
100
AcDbEntity
  8
KONTUR
100
AcDbLine
 10
785.8116682782
 20
1979.4642773312
 30
0.0
 11
785.8116682782
 21
1980.9679397715
 31
0.0
  0
LINE
  5
281
330
1F
100
AcDbEntity
  8
KONTUR
100
AcDbLine
 10
784.9619040297
 20
1980.3140415797
 30
0.0
 11
785.8116682782
 21
1979.4642773312
 31
0.0
  0
ARC
  5
282
330
1F
100
AcDbEntity
  8
KONTUR
100
AcDbCircle
 10
789.4902110336
 20
1975.3084422715
 30
0.0
 40
6.749932499999824
100
AcDbArc
 50
132.1340160174
 51
137.8659839826
  0
LINE
  5
283
330
1F
100
AcDbEntity
  8
KONTUR
100
AcDbLine
 10
784.4846117254
 20
1979.8367492754
 30
0.0
 11
785.3343759739
 21
1978.9869850269
 31
0.0
  0
LINE
  5
284
330
1F
100
AcDbEntity
  8
KONTUR
100
AcDbLine
 10
785.3343759739
 20
1978.9869850269
 30
0.0
 11
783.8307135336
 21
1978.9869850269
 31
0.0
  0
LINE
  5
285
330
1F
100
AcDbEntity
  8
KONTUR
100
AcDbLine
 10
786.0093692239
 20
1978.3119917769
 30
0.0
 11
783.4453554419
 21
1978.3119917769
 31
0.0
  0
LINE
  5
286
330
1F
100
AcDbEntity
  8
KONTUR
100
AcDbLine
 10
786.0093692239
 20
1978.3119917769
 30
0.0
 11
788.6754221042
 21
1975.6459388965
 31
0.0
  0
LINE
  5
287
330
1F
100
AcDbEntity
  8
KONTUR
100
AcDbLine
 10
784.9050539629
 20
1975.6459388965
 30
0.0
 11
788.6754221042
 21
1975.6459388965
 31
0.0
  0
LINE
  5
288
330
1F
100
AcDbEntity
  8
KONTUR
100
AcDbLine
 10
784.9050539629
 20
1975.6459388965
 30
0.0
 11
783.0920224306
 21
1977.4589704288
 31
0.0
  0
ARC
  5
289
330
1F
100
AcDbEntity
  8
KONTUR
100
AcDbCircle
 10
789.4902110336
 20
1975.3084422715
 30
0.0
 40
6.749932499998561
100
AcDbArc
 50
161.4217230869
 51
168.0229379355
  0
LINE
  5
28A
330
1F
100
AcDbEntity
  8
KONTUR
100
AcDbLine
 10
782.7487212292
 20
1975.6459388965
 30
0.0
 11
783.9504693542
 21
1975.6459388965
 31
0.0
  0
LINE
  5
28B
330
1F
100
AcDbEntity
  8
KONTUR
100
AcDbLine
 10
782.7487212292
 20
1974.9709456465
 30
0.0
 11
783.9504693542
 21
1974.9709456465
 31
0.0
  0
LINE
  5
28C
330
1F
100
AcDbEntity
  8
KONTUR
100
AcDbLine
 10
783.9504693542
 20
1974.9709456465
 30
0.0
 11
782.8872194461
 21
1973.9076957384
 31
0.0
  0
ARC
  5
28D
330
1F
100
AcDbEntity
  8
KONTUR
100
AcDbCircle
 10
789.4902110336
 20
1975.3084422715
 30
0.0
 40
6.749932499997342
100
AcDbArc
 50
191.9770620645
 51
198.5782769131
  0
LINE
  5
28E
330
1F
100
AcDbEntity
  8
KONTUR
100
AcDbLine
 10
784.9050539629
 20
1974.9709456465
 30
0.0
 11
783.0920224306
 21
1973.1579141142
 31
0.0
  0
LINE
  5
28F
330
1F
100
AcDbEntity
  8
KONTUR
100
AcDbLine
 10
784.9050539629
 20
1974.9709456465
 30
0.0
 11
788.6754221042
 21
1974.9709456465
 31
0.0
  0
LINE
  5
290
330
1F
100
AcDbEntity
  8
KONTUR
100
AcDbLine
 10
786.0093692239
 20
1972.3048927662
 30
0.0
 11
788.6754221042
 21
1974.9709456465
 31
0.0
  0
LINE
  5
291
330
1F
100
AcDbEntity
  8
KONTUR
100
AcDbLine
 10
786.0093692239
 20
1972.3048927662
 30
0.0
 11
783.4453554419
 21
1972.3048927662
 31
0.0
  0
ARC
  5
292
330
1F
100
AcDbEntity
  8
KONTUR
100
AcDbCircle
 10
789.4902110336
 20
1975.3084422715
 30
0.0
 40
6.749932499997635
100
AcDbArc
 50
206.4217230869
 51
213.0229379355
  0
LINE
  5
293
330
1F
100
AcDbEntity
  8
KONTUR
100
AcDbLine
 10
785.3343759739
 20
1971.6298995162
 30
0.0
 11
783.8307135336
 21
1971.6298995162
 31
0.0
  0
LINE
  5
294
330
1F
100
AcDbEntity
  8
KONTUR
100
AcDbLine
 10
784.4846117254
 20
1970.7801352677
 30
0.0
 11
785.3343759739
 21
1971.6298995162
 31
0.0
  0
ARC
  5
295
330
1F
100
AcDbEntity
  8
KONTUR
100
AcDbCircle
 10
789.4902110336
 20
1975.3084422715
 30
0.0
 40
6.749932500000125
100
AcDbArc
 50
222.1340160174
 51
227.8659839826
  0
LINE
  5
296
330
1F
100
AcDbEntity
  8
KONTUR
100
AcDbLine
 10
784.9619040297
 20
1970.3028429634
 30
0.0
 11
785.8116682782
 21
1971.1526072119
 31
0.0
  0
LINE
  5
297
330
1F
100
AcDbEntity
  8
KONTUR
100
AcDbLine
 10
785.8116682782
 20
1971.1526072119
 30
0.0
 11
785.8116682782
 21
1969.6489447716
 31
0.0
  0
ARC
  5
298
330
1F
100
AcDbEntity
  8
KONTUR
100
AcDbCircle
 10
789.4902110336
 20
1975.3084422715
 30
0.0
 40
6.749932500001361
100
AcDbArc
 50
236.9770620645
 51
243.5782769129
  0
LINE
  5
299
330
1F
100
AcDbEntity
  8
KONTUR
100
AcDbLine
 10
786.4866615282
 20
1971.8276004619
 30
0.0
 11
786.4866615282
 21
1969.2635866799
 31
0.0
  0
LINE
  5
29A
330
1F
100
AcDbEntity
  8
KONTUR
100
AcDbLine
 10
786.4866615282
 20
1971.8276004619
 30
0.0
 11
789.1527144085
 21
1974.4936533422
 31
0.0
  0
LINE
  5
29B
330
1F
100
AcDbEntity
  8
KONTUR
100
AcDbLine
 10
789.1527144085
 20
1970.7232852009
 30
0.0
 11
789.1527144085
 21
1974.4936533422
 31
0.0
  0
LINE
  5
29C
330
1F
100
AcDbEntity
  8
KONTUR
100
AcDbLine
 10
789.1527144085
 20
1970.7232852009
 30
0.0
 11
787.3396828762
 21
1968.9102536686
 31
0.0
  0
ARC
  5
29D
330
1F
100
AcDbEntity
  8
KONTUR
100
AcDbCircle
 10
789.4902110336
 20
1975.3084422715
 30
0.0
 40
6.749932499999458
100
AcDbArc
 50
251.4217230868
 51
258.0229379355
  0
LINE
  5
29E
330
1F
100
AcDbEntity
  8
KONTUR
100
AcDbLine
 10
789.1527144086
 20
1969.7687005922
 30
0.0
 11
788.0894645004
 21
1968.7054506841
 31
0.0
  0
LINE
  5
29F
330
1F
100
AcDbEntity
  8
KONTUR
100
AcDbLine
 10
789.1527144086
 20
1968.5669524672
 30
0.0
 11
789.1527144086
 21
1969.7687005922
 31
0.0
  0
ARC
  5
2A0
330
1F
100
AcDbEntity
  8
KONTUR
100
AcDbCircle
 10
789.4902110336
 20
1975.3084422715
 30
0.0
 40
6.749932499998518
100
AcDbArc
 50
267.1340160174
 51
272.8659839826
  0
LINE
  5
2A1
330
1F
100
AcDbEntity
  8
KONTUR
100
AcDbLine
 10
789.8277076586
 20
1968.5669524672
 30
0.0
 11
789.8277076586
 21
1969.7687005922
 31
0.0
  0
LINE
  5
2A2
330
1F
100
AcDbEntity
  8
KONTUR
100
AcDbLine
 10
789.8277076586
 20
1969.7687005922
 30
0.0
 11
790.8909575667
 21
1968.7054506841
 31
0.0
  0
ARC
  5
2A3
330
1F
100
AcDbEntity
  8
KONTUR
100
AcDbCircle
 10
789.4902110336
 20
1975.3084422715
 30
0.0
 40
6.749932499998383
100
AcDbArc
 50
281.9770620645
 51
288.5782769131
  0
LINE
  5
2A4
330
1F
100
AcDbEntity
  8
KONTUR
100
AcDbLine
 10
789.8277076586
 20
1970.7232852009
 30
0.0
 11
791.6407391909
 21
1968.9102536686
 31
0.0
  0
LINE
  5
2A5
330
1F
100
AcDbEntity
  8
KONTUR
100
AcDbLine
 10
789.8277076586
 20
1970.7232852009
 30
0.0
 11
789.8277076586
 21
1974.4936533422
 31
0.0
  0
LINE
  5
2A6
330
1F
100
AcDbEntity
  8
KONTUR
100
AcDbLine
 10
792.4937605389
 20
1971.8276004619
 30
0.0
 11
789.8277076586
 21
1974.4936533422
 31
0.0
  0
LINE
  5
2A7
330
1F
100
AcDbEntity
  8
KONTUR
100
AcDbLine
 10
792.4937605389
 20
1971.8276004619
 30
0.0
 11
792.4937605389
 21
1969.2635866799
 31
0.0
  0
ARC
  5
2A8
330
1F
100
AcDbEntity
  8
KONTUR
100
AcDbCircle
 10
789.4902110336
 20
1975.3084422715
 30
0.0
 40
6.749932499999189
100
AcDbArc
 50
296.421723087
 51
303.0229379355
  0
LINE
  5
2A9
330
1F
100
AcDbEntity
  8
KONTUR
100
AcDbLine
 10
793.1687537889
 20
1971.1526072119
 30
0.0
 11
793.1687537889
 21
1969.6489447716
 31
0.0
  0
LINE
  5
2AA
330
1F
100
AcDbEntity
  8
KONTUR
100
AcDbLine
 10
794.0185180374
 20
1970.3028429634
 30
0.0
 11
793.1687537889
 21
1971.1526072119
 31
0.0
  0
ARC
  5
2AB
330
1F
100
AcDbEntity
  8
KONTUR
100
AcDbCircle
 10
789.4902110336
 20
1975.3084422715
 30
0.0
 40
6.749932499999588
100
AcDbArc
 50
312.1340160174
 51
317.8659839826
  0
LINE
  5
2AC
330
1F
100
AcDbEntity
  8
KONTUR
100
AcDbLine
 10
794.4958103417
 20
1970.7801352677
 30
0.0
 11
793.6460460932
 21
1971.6298995162
 31
0.0
  0
LINE
  5
2AD
330
1F
100
AcDbEntity
  8
KONTUR
100
AcDbLine
 10
793.6460460932
 20
1971.6298995162
 30
0.0
 11
795.1497085335
 21
1971.6298995162
 31
0.0
  0
ARC
  5
2AE
330
1F
100
AcDbEntity
  8
KONTUR
100
AcDbCircle
 10
789.4902110336
 20
1975.3084422715
 30
0.0
 40
6.749932500000476
100
AcDbArc
 50
326.9770620645
 51
333.5782769131
  0
LINE
  5
2AF
330
1F
100
AcDbEntity
  8
KONTUR
100
AcDbLine
 10
792.9710528432
 20
1972.3048927662
 30
0.0
 11
795.5350666252
 21
1972.3048927662
 31
0.0
  0
LINE
  5
2B0
330
1F
100
AcDbEntity
  8
KONTUR
100
AcDbLine
 10
792.9710528432
 20
1972.3048927662
 30
0.0
 11
790.3049999629
 21
1974.9709456465
 31
0.0
  0
LINE
  5
2B1
330
1F
100
AcDbEntity
  8
KONTUR
100
AcDbLine
 10
794.0753681042
 20
1974.9709456465
 30
0.0
 11
790.3049999629
 21
1974.9709456465
 31
0.0
  0
LINE
  5
2B2
330
1F
100
AcDbEntity
  8
KONTUR
100
AcDbLine
 10
794.0753681042
 20
1974.9709456465
 30
0.0
 11
795.8883996365
 21
1973.1579141142
 31
0.0
  0
ARC
  5
2B3
330
1F
100
AcDbEntity
  8
KONTUR
100
AcDbCircle
 10
789.4902110336
 20
1975.3084422715
 30
0.0
 40
6.749932500000726
100
AcDbArc
 50
341.421723087
 51
348.0229379355
  0
LINE
  5
2B4
330
1F
100
AcDbEntity
  8
KONTUR
100
AcDbLine
 10
795.0299527129
 20
1974.9709456465
 30
0.0
 11
796.093202621
 21
1973.9076957384
 31
0.0
  0
LINE
  5
2B5
330
1F
100
AcDbEntity
  8
KONTUR
100
AcDbLine
 10
796.2317008379
 20
1974.9709456465
 30
0.0
 11
795.0299527129
 21
1974.9709456465
 31
0.0
  0
ARC
  5
2B6
330
1F
100
AcDbEntity
  8
KONTUR
100
AcDbCircle
 10
789.4902110336
 20
1975.3084422715
 30
0.0
 40
6.749932500000834
100
AcDbArc
 50
357.1340160174
 51
2.8659839826
  0
LINE
  5
2B7
330
1F
100
AcDbEntity
  8
KONTUR
100
AcDbLine
 10
796.2317008379
 20
1975.6459388965
 30
0.0
 11
795.0299527129
 21
1975.6459388965
 31
0.0
  0
LINE
  5
2B8
330
1F
100
AcDbEntity
  8
KONTUR
100
AcDbLine
 10
795.0299527129
 20
1975.6459388965
 30
0.0
 11
796.093202621
 21
1976.7091888047
 31
0.0
  0
ARC
  5
2B9
330
1F
100
AcDbEntity
  8
KONTUR
100
AcDbCircle
 10
789.4902110336
 20
1975.3084422715
 30
0.0
 40
6.749932500001039
100
AcDbArc
 50
11.9770620645
 51
18.5782769131
  0
LINE
  5
2BA
330
1F
100
AcDbEntity
  8
KONTUR
100
AcDbLine
 10
794.0753681042
 20
1975.6459388965
 30
0.0
 11
795.8883996365
 21
1977.4589704289
 31
0.0
  0
LINE
  5
2BB
330
1F
100
AcDbEntity
  8
KONTUR
100
AcDbLine
 10
794.0753681042
 20
1975.6459388965
 30
0.0
 11
790.3049999629
 21
1975.6459388965
 31
0.0
  0
LINE
  5
2BC
330
1F
100
AcDbEntity
  8
KONTUR
100
AcDbLine
 10
792.9710528432
 20
1978.3119917769
 30
0.0
 11
790.3049999629
 21
1975.6459388965
 31
0.0
  0
LINE
  5
2BD
330
1F
100
AcDbEntity
  8
KONTUR
100
AcDbLine
 10
792.9710528432
 20
1978.3119917769
 30
0.0
 11
795.5350666252
 21
1978.3119917769
 31
0.0
  0
ARC
  5
2BE
330
1F
100
AcDbEntity
  8
KONTUR
100
AcDbCircle
 10
789.4902110336
 20
1975.3084422715
 30
0.0
 40
6.749932500001596
100
AcDbArc
 50
26.421723087
 51
33.0229379355
  0
LINE
  5
2BF
330
1F
100
AcDbEntity
  8
KONTUR
100
AcDbLine
 10
793.6460460932
 20
1978.9869850269
 30
0.0
 11
795.1497085335
 21
1978.9869850269
 31
0.0
  0
LINE
  5
2C0
330
1F
100
AcDbEntity
  8
KONTUR
100
AcDbLine
 10
794.4958103417
 20
1979.8367492754
 30
0.0
 11
793.6460460932
 21
1978.9869850269
 31
0.0
  0
ARC
  5
2C1
330
1F
100
AcDbEntity
  8
KONTUR
100
AcDbCircle
 10
789.4902110336
 20
1975.3084422715
 30
0.0
 40
6.749932499999929
100
AcDbArc
 50
42.1340160174
 51
47.8659839826
  0
LINE
  5
2C2
330
1F
100
AcDbEntity
  8
KONTUR
100
AcDbLine
 10
794.0185180374
 20
1980.3140415797
 30
0.0
 11
793.1687537889
 21
1979.4642773312
 31
0.0
  0
LINE
  5
2C3
330
1F
100
AcDbEntity
  8
KONTUR
100
AcDbLine
 10
778.3867425282
 20
1989.4004550338
 30
0.0
 11
778.3867425282
 21
1987.8967925935
 31
0.0
  0
ARC
  5
2C4
330
1F
100
AcDbEntity
  8
KONTUR
100
AcDbCircle
 10
782.0652852835
 20
1993.5562900935
 30
0.0
 40
6.749932499995896
100
AcDbArc
 50
236.9770620645
 51
243.578276913
  0
LINE
  5
2C5
330
1F
100
AcDbEntity
  8
KONTUR
100
AcDbLine
 10
779.0617357782
 20
1990.0754482838
 30
0.0
 11
779.0617357782
 21
1987.5114345018
 31
0.0
  0
LINE
  5
2C6
330
1F
100
AcDbEntity
  8
KONTUR
100
AcDbLine
 10
779.0617357782
 20
1990.0754482838
 30
0.0
 11
781.7277886585
 21
1992.7415011641
 31
0.0
  0
LINE
  5
2C7
330
1F
100
AcDbEntity
  8
KONTUR
100
AcDbLine
 10
781.7277886585
 20
1988.9711330228
 30
0.0
 11
781.7277886585
 21
1992.7415011641
 31
0.0
  0
LINE
  5
2C8
330
1F
100
AcDbEntity
  8
KONTUR
100
AcDbLine
 10
781.7277886585
 20
1988.9711330228
 30
0.0
 11
779.9147571262
 21
1987.1581014905
 31
0.0
  0
ARC
  5
2C9
330
1F
100
AcDbEntity
  8
KONTUR
100
AcDbCircle
 10
782.0652852835
 20
1993.5562900935
 30
0.0
 40
6.749932499994605
100
AcDbArc
 50
251.4217230869
 51
258.0229379355
  0
LINE
  5
2CA
330
1F
100
AcDbEntity
  8
KONTUR
100
AcDbLine
 10
781.7277886585
 20
1988.0165484141
 30
0.0
 11
780.6645387504
 21
1986.953298506
 31
0.0
  0
LINE
  5
2CB
330
1F
100
AcDbEntity
  8
KONTUR
100
AcDbLine
 10
781.7277886585
 20
1986.8148002891
 30
0.0
 11
781.7277886585
 21
1988.0165484141
 31
0.0
  0
ARC
  5
2CC
330
1F
100
AcDbEntity
  8
KONTUR
100
AcDbCircle
 10
782.0652852835
 20
1993.5562900935
 30
0.0
 40
6.749932499996213
100
AcDbArc
 50
267.1340160174
 51
272.8659839825
  0
LINE
  5
2CD
330
1F
100
AcDbEntity
  8
KONTUR
100
AcDbLine
 10
782.4027819085
 20
1986.8148002891
 30
0.0
 11
782.4027819085
 21
1988.0165484141
 31
0.0
  0
LINE
  5
2CE
330
1F
100
AcDbEntity
  8
KONTUR
100
AcDbLine
 10
782.4027819085
 20
1988.0165484141
 30
0.0
 11
783.4660318167
 21
1986.953298506
 31
0.0
  0
ARC
  5
2CF
330
1F
100
AcDbEntity
  8
KONTUR
100
AcDbCircle
 10
782.0652852835
 20
1993.5562900935
 30
0.0
 40
6.749932499996886
100
AcDbArc
 50
281.9770620644
 51
288.578276913
  0
LINE
  5
2D0
330
1F
100
AcDbEntity
  8
KONTUR
100
AcDbLine
 10
782.4027819085
 20
1988.9711330228
 30
0.0
 11
784.2158134408
 21
1987.1581014905
 31
0.0
  0
LINE
  5
2D1
330
1F
100
AcDbEntity
  8
KONTUR
100
AcDbLine
 10
782.4027819085
 20
1988.9711330228
 30
0.0
 11
782.4027819085
 21
1992.7415011641
 31
0.0
  0
LINE
  5
2D2
330
1F
100
AcDbEntity
  8
KONTUR
100
AcDbLine
 10
785.0688347888
 20
1990.0754482838
 30
0.0
 11
782.4027819085
 21
1992.7415011641
 31
0.0
  0
LINE
  5
2D3
330
1F
100
AcDbEntity
  8
KONTUR
100
AcDbLine
 10
785.0688347888
 20
1990.0754482838
 30
0.0
 11
785.0688347888
 21
1987.5114345018
 31
0.0
  0
ARC
  5
2D4
330
1F
100
AcDbEntity
  8
KONTUR
100
AcDbCircle
 10
782.0652852835
 20
1993.5562900935
 30
0.0
 40
6.749932499997206
100
AcDbArc
 50
296.4217230869
 51
303.0229379354
  0
LINE
  5
2D5
330
1F
100
AcDbEntity
  8
KONTUR
100
AcDbLine
 10
785.7438280388
 20
1989.4004550338
 30
0.0
 11
785.7438280388
 21
1987.8967925935
 31
0.0
  0
LINE
  5
2D6
330
1F
100
AcDbEntity
  8
KONTUR
100
AcDbLine
 10
786.5935922874
 20
1988.5506907853
 30
0.0
 11
785.7438280388
 21
1989.4004550338
 31
0.0
  0
ARC
  5
2D7
330
1F
100
AcDbEntity
  8
KONTUR
100
AcDbCircle
 10
782.0652852835
 20
1993.5562900935
 30
0.0
 40
6.749932499999026
100
AcDbArc
 50
312.1340160173
 51
317.8659839825
  0
LINE
  5
2D8
330
1F
100
AcDbEntity
  8
KONTUR
100
AcDbLine
 10
787.0708845917
 20
1989.0279830896
 30
0.0
 11
786.2211203432
 21
1989.8777473381
 31
0.0
  0
LINE
  5
2D9
330
1F
100
AcDbEntity
  8
KONTUR
100
AcDbLine
 10
786.2211203432
 20
1989.8777473381
 30
0.0
 11
787.7247827835
 21
1989.8777473381
 31
0.0
  0
ARC
  5
2DA
330
1F
100
AcDbEntity
  8
KONTUR
100
AcDbCircle
 10
782.0652852835
 20
1993.5562900935
 30
0.0
 40
6.749932500000818
100
AcDbArc
 50
326.9770620644
 51
333.5782769131
  0
LINE
  5
2DB
330
1F
100
AcDbEntity
  8
KONTUR
100
AcDbLine
 10
785.5461270932
 20
1990.5527405881
 30
0.0
 11
788.1101408752
 21
1990.5527405881
 31
0.0
  0
LINE
  5
2DC
330
1F
100
AcDbEntity
  8
KONTUR
100
AcDbLine
 10
785.5461270932
 20
1990.5527405881
 30
0.0
 11
782.8800742129
 21
1993.2187934685
 31
0.0
  0
LINE
  5
2DD
330
1F
100
AcDbEntity
  8
KONTUR
100
AcDbLine
 10
786.6504423542
 20
1993.2187934685
 30
0.0
 11
782.8800742129
 21
1993.2187934685
 31
0.0
  0
LINE
  5
2DE
330
1F
100
AcDbEntity
  8
KONTUR
100
AcDbLine
 10
786.6504423542
 20
1993.2187934685
 30
0.0
 11
788.4634738865
 21
1991.4057619362
 31
0.0
  0
ARC
  5
2DF
330
1F
100
AcDbEntity
  8
KONTUR
100
AcDbCircle
 10
782.0652852835
 20
1993.5562900935
 30
0.0
 40
6.749932500000035
100
AcDbArc
 50
341.4217230869
 51
348.0229379355
  0
LINE
  5
2E0
330
1F
100
AcDbEntity
  8
KONTUR
100
AcDbLine
 10
787.6050269629
 20
1993.2187934685
 30
0.0
 11
788.668276871
 21
1992.1555435603
 31
0.0
  0
LINE
  5
2E1
330
1F
100
AcDbEntity
  8
KONTUR
100
AcDbLine
 10
788.8067750879
 20
1993.2187934685
 30
0.0
 11
787.6050269629
 21
1993.2187934685
 31
0.0
  0
ARC
  5
2E2
330
1F
100
AcDbEntity
  8
KONTUR
100
AcDbCircle
 10
782.0652852835
 20
1993.5562900935
 30
0.0
 40
6.7499324999993
100
AcDbArc
 50
357.1340160174
 51
2.8659839826
  0
LINE
  5
2E3
330
1F
100
AcDbEntity
  8
KONTUR
100
AcDbLine
 10
788.8067750879
 20
1993.8937867185
 30
0.0
 11
787.6050269629
 21
1993.8937867185
 31
0.0
  0
LINE
  5
2E4
330
1F
100
AcDbEntity
  8
KONTUR
100
AcDbLine
 10
787.6050269629
 20
1993.8937867185
 30
0.0
 11
788.668276871
 21
1994.9570366266
 31
0.0
  0
ARC
  5
2E5
330
1F
100
AcDbEntity
  8
KONTUR
100
AcDbCircle
 10
782.0652852835
 20
1993.5562900935
 30
0.0
 40
6.749932500009797
100
AcDbArc
 50
11.9770620645
 51
18.578276913
  0
LINE
  5
2E6
330
1F
100
AcDbEntity
  8
KONTUR
100
AcDbLine
 10
786.6504423542
 20
1993.8937867185
 30
0.0
 11
788.4634738865
 21
1995.7068182508
 31
0.0
  0
LINE
  5
2E7
330
1F
100
AcDbEntity
  8
KONTUR
100
AcDbLine
 10
786.6504423542
 20
1993.8937867185
 30
0.0
 11
782.8800742129
 21
1993.8937867185
 31
0.0
  0
LINE
  5
2E8
330
1F
100
AcDbEntity
  8
KONTUR
100
AcDbLine
 10
785.5461270932
 20
1996.5598395988
 30
0.0
 11
782.8800742129
 21
1993.8937867185
 31
0.0
  0
LINE
  5
2E9
330
1F
100
AcDbEntity
  8
KONTUR
100
AcDbLine
 10
785.5461270932
 20
1996.5598395988
 30
0.0
 11
788.1101408752
 21
1996.5598395988
 31
0.0
  0
ARC
  5
2EA
330
1F
100
AcDbEntity
  8
KONTUR
100
AcDbCircle
 10
782.0652852835
 20
1993.5562900935
 30
0.0
 40
6.749932500010522
100
AcDbArc
 50
26.4217230869
 51
33.0229379355
  0
LINE
  5
2EB
330
1F
100
AcDbEntity
  8
KONTUR
100
AcDbLine
 10
786.2211203432
 20
1997.2348328488
 30
0.0
 11
787.7247827835
 21
1997.2348328488
 31
0.0
  0
LINE
  5
2EC
330
1F
100
AcDbEntity
  8
KONTUR
100
AcDbLine
 10
787.0708845917
 20
1998.0845970973
 30
0.0
 11
786.2211203432
 21
1997.2348328488
 31
0.0
  0
ARC
  5
2ED
330
1F
100
AcDbEntity
  8
KONTUR
100
AcDbCircle
 10
782.0652852835
 20
1993.5562900935
 30
0.0
 40
6.749932500000049
100
AcDbArc
 50
42.1340160174
 51
47.8659839826
  0
LINE
  5
2EE
330
1F
100
AcDbEntity
  8
KONTUR
100
AcDbLine
 10
786.5935922874
 20
1998.5618894016
 30
0.0
 11
785.7438280388
 21
1997.7121251531
 31
0.0
  0
LINE
  5
2EF
330
1F
100
AcDbEntity
  8
KONTUR
100
AcDbLine
 10
785.7438280388
 20
1997.7121251531
 30
0.0
 11
785.7438280388
 21
1999.2157875934
 31
0.0
  0
ARC
  5
2F0
330
1F
100
AcDbEntity
  8
KONTUR
100
AcDbCircle
 10
782.0652852835
 20
1993.5562900935
 30
0.0
 40
6.749932499989943
100
AcDbArc
 50
56.9770620645
 51
63.578276913
  0
LINE
  5
2F1
330
1F
100
AcDbEntity
  8
KONTUR
100
AcDbLine
 10
785.0688347888
 20
1997.0371319031
 30
0.0
 11
785.0688347888
 21
1999.6011456851
 31
0.0
  0
LINE
  5
2F2
330
1F
100
AcDbEntity
  8
KONTUR
100
AcDbLine
 10
785.0688347888
 20
1997.0371319031
 30
0.0
 11
782.4027819085
 21
1994.3710790228
 31
0.0
  0
LINE
  5
2F3
330
1F
100
AcDbEntity
  8
KONTUR
100
AcDbLine
 10
782.4027819085
 20
1998.1414471641
 30
0.0
 11
782.4027819085
 21
1994.3710790228
 31
0.0
  0
LINE
  5
2F4
330
1F
100
AcDbEntity
  8
KONTUR
100
AcDbLine
 10
782.4027819085
 20
1998.1414471641
 30
0.0
 11
784.2158134408
 21
1999.9544786964
 31
0.0
  0
LINE
  5
2F5
330
1F
100
AcDbEntity
  8
KONTUR
100
AcDbLine
 10
782.4027819085
 20
1999.0960317728
 30
0.0
 11
783.4660318167
 21
2000.1592816809
 31
0.0
  0
LINE
  5
2F6
330
1F
100
AcDbEntity
  8
KONTUR
100
AcDbLine
 10
782.4027819085
 20
2000.2977798978
 30
0.0
 11
782.4027819085
 21
1999.0960317728
 31
0.0
  0
ARC
  5
2F7
330
1F
100
AcDbEntity
  8
KONTUR
100
AcDbCircle
 10
782.0652852835
 20
1993.5562900935
 30
0.0
 40
6.749932499988695
100
AcDbArc
 50
87.1340160174
 51
92.8659839826
  0
LINE
  5
2F8
330
1F
100
AcDbEntity
  8
KONTUR
100
AcDbLine
 10
781.7277886585
 20
2000.2977798978
 30
0.0
 11
781.7277886585
 21
1999.0960317728
 31
0.0
  0
LINE
  5
2F9
330
1F
100
AcDbEntity
  8
KONTUR
100
AcDbLine
 10
781.7277886585
 20
1999.0960317728
 30
0.0
 11
780.6645387504
 21
2000.1592816809
 31
0.0
  0
ARC
  5
2FA
330
1F
100
AcDbEntity
  8
KONTUR
100
AcDbCircle
 10
782.0652852835
 20
1993.5562900935
 30
0.0
 40
6.749932499991434
100
AcDbArc
 50
101.9770620646
 51
108.5782769131
  0
LINE
  5
2FB
330
1F
100
AcDbEntity
  8
KONTUR
100
AcDbLine
 10
781.7277886585
 20
1998.1414471641
 30
0.0
 11
779.9147571262
 21
1999.9544786964
 31
0.0
  0
LINE
  5
2FC
330
1F
100
AcDbEntity
  8
KONTUR
100
AcDbLine
 10
781.7277886585
 20
1998.1414471641
 30
0.0
 11
781.7277886585
 21
1994.3710790228
 31
0.0
  0
LINE
  5
2FD
330
1F
100
AcDbEntity
  8
KONTUR
100
AcDbLine
 10
779.0617357782
 20
1997.0371319031
 30
0.0
 11
781.7277886585
 21
1994.3710790228
 31
0.0
  0
LINE
  5
2FE
330
1F
100
AcDbEntity
  8
KONTUR
100
AcDbLine
 10
779.0617357782
 20
1997.0371319031
 30
0.0
 11
779.0617357782
 21
1999.6011456851
 31
0.0
  0
ARC
  5
2FF
330
1F
100
AcDbEntity
  8
KONTUR
100
AcDbCircle
 10
782.0652852835
 20
1993.5562900935
 30
0.0
 40
6.749932499991615
100
AcDbArc
 50
116.421723087
 51
123.0229379356
  0
LINE
  5
300
330
1F
100
AcDbEntity
  8
KONTUR
100
AcDbLine
 10
778.3867425282
 20
1997.7121251531
 30
0.0
 11
778.3867425282
 21
1999.2157875934
 31
0.0
  0
LINE
  5
301
330
1F
100
AcDbEntity
  8
KONTUR
100
AcDbLine
 10
777.5369782797
 20
1998.5618894016
 30
0.0
 11
778.3867425282
 21
1997.7121251531
 31
0.0
  0
ARC
  5
302
330
1F
100
AcDbEntity
  8
KONTUR
100
AcDbCircle
 10
782.0652852835
 20
1993.5562900935
 30
0.0
 40
6.749932499992244
100
AcDbArc
 50
132.1340160175
 51
137.8659839827
  0
LINE
  5
303
330
1F
100
AcDbEntity
  8
KONTUR
100
AcDbLine
 10
777.0596859754
 20
1998.0845970973
 30
0.0
 11
777.9094502239
 21
1997.2348328488
 31
0.0
  0
LINE
  5
304
330
1F
100
AcDbEntity
  8
KONTUR
100
AcDbLine
 10
777.9094502239
 20
1997.2348328488
 30
0.0
 11
776.4057877836
 21
1997.2348328488
 31
0.0
  0
ARC
  5
305
330
1F
100
AcDbEntity
  8
KONTUR
100
AcDbCircle
 10
782.0652852835
 20
1993.5562900935
 30
0.0
 40
6.749932499993355
100
AcDbArc
 50
146.9770620646
 51
153.578276913
  0
LINE
  5
306
330
1F
100
AcDbEntity
  8
KONTUR
100
AcDbLine
 10
778.5844434739
 20
1996.5598395988
 30
0.0
 11
776.0204296919
 21
1996.5598395988
 31
0.0
  0
LINE
  5
307
330
1F
100
AcDbEntity
  8
KONTUR
100
AcDbLine
 10
778.5844434739
 20
1996.5598395988
 30
0.0
 11
781.2504963542
 21
1993.8937867185
 31
0.0
  0
LINE
  5
308
330
1F
100
AcDbEntity
  8
KONTUR
100
AcDbLine
 10
777.4801282129
 20
1993.8937867185
 30
0.0
 11
781.2504963542
 21
1993.8937867185
 31
0.0
  0
LINE
  5
309
330
1F
100
AcDbEntity
  8
KONTUR
100
AcDbLine
 10
777.4801282129
 20
1993.8937867185
 30
0.0
 11
775.6670966806
 21
1995.7068182508
 31
0.0
  0
ARC
  5
30A
330
1F
100
AcDbEntity
  8
KONTUR
100
AcDbCircle
 10
782.0652852835
 20
1993.5562900935
 30
0.0
 40
6.749932500000008
100
AcDbArc
 50
161.421723087
 51
168.0229379355
  0
LINE
  5
30B
330
1F
100
AcDbEntity
  8
KONTUR
100
AcDbLine
 10
776.5255436042
 20
1993.8937867185
 30
0.0
 11
775.4622936961
 21
1994.9570366266
 31
0.0
  0
LINE
  5
30C
330
1F
100
AcDbEntity
  8
KONTUR
100
AcDbLine
 10
775.3237954792
 20
1993.8937867185
 30
0.0
 11
776.5255436042
 21
1993.8937867185
 31
0.0
  0
ARC
  5
30D
330
1F
100
AcDbEntity
  8
KONTUR
100
AcDbCircle
 10
782.0652852835
 20
1993.5562900935
 30
0.0
 40
6.749932500000084
100
AcDbArc
 50
177.1340160174
 51
182.8659839826
  0
LINE
  5
30E
330
1F
100
AcDbEntity
  8
KONTUR
100
AcDbLine
 10
775.3237954792
 20
1993.2187934685
 30
0.0
 11
776.5255436042
 21
1993.2187934685
 31
0.0
  0
LINE
  5
30F
330
1F
100
AcDbEntity
  8
KONTUR
100
AcDbLine
 10
776.5255436042
 20
1993.2187934685
 30
0.0
 11
775.4622936961
 21
1992.1555435603
 31
0.0
  0
ARC
  5
310
330
1F
100
AcDbEntity
  8
KONTUR
100
AcDbCircle
 10
782.0652852835
 20
1993.5562900935
 30
0.0
 40
6.749932499990296
100
AcDbArc
 50
191.9770620645
 51
198.5782769131
  0
LINE
  5
311
330
1F
100
AcDbEntity
  8
KONTUR
100
AcDbLine
 10
777.4801282129
 20
1993.2187934685
 30
0.0
 11
775.6670966806
 21
1991.4057619362
 31
0.0
  0
LINE
  5
312
330
1F
100
AcDbEntity
  8
KONTUR
100
AcDbLine
 10
777.4801282129
 20
1993.2187934685
 30
0.0
 11
781.2504963542
 21
1993.2187934685
 31
0.0
  0
LINE
  5
313
330
1F
100
AcDbEntity
  8
KONTUR
100
AcDbLine
 10
778.5844434739
 20
1990.5527405881
 30
0.0
 11
781.2504963542
 21
1993.2187934685
 31
0.0
  0
LINE
  5
314
330
1F
100
AcDbEntity
  8
KONTUR
100
AcDbLine
 10
778.5844434739
 20
1990.5527405881
 30
0.0
 11
776.0204296919
 21
1990.5527405881
 31
0.0
  0
ARC
  5
315
330
1F
100
AcDbEntity
  8
KONTUR
100
AcDbCircle
 10
782.0652852835
 20
1993.5562900935
 30
0.0
 40
6.749932499986388
100
AcDbArc
 50
206.421723087
 51
213.0229379355
  0
LINE
  5
316
330
1F
100
AcDbEntity
  8
KONTUR
100
AcDbLine
 10
777.9094502239
 20
1989.8777473381
 30
0.0
 11
776.4057877836
 21
1989.8777473381
 31
0.0
  0
LINE
  5
317
330
1F
100
AcDbEntity
  8
KONTUR
100
AcDbLine
 10
777.0596859754
 20
1989.0279830896
 30
0.0
 11
777.9094502239
 21
1989.8777473381
 31
0.0
  0
ARC
  5
318
330
1F
100
AcDbEntity
  8
KONTUR
100
AcDbCircle
 10
782.0652852835
 20
1993.5562900935
 30
0.0
 40
6.7499325
100
AcDbArc
 50
222.1340160174
 51
227.8659839826
  0
LINE
  5
319
330
1F
100
AcDbEntity
  8
KONTUR
100
AcDbLine
 10
777.5369782797
 20
1988.5506907853
 30
0.0
 11
778.3867425282
 21
1989.4004550338
 31
0.0
  0
LINE
  5
31A
330
1F
100
AcDbEntity
  8
KONTUR
100
AcDbLine
 10
793.2365940282
 20
1989.4004550338
 30
0.0
 11
793.2365940282
 21
1987.8967925935
 31
0.0
  0
ARC
  5
31B
330
1F
100
AcDbEntity
  8
KONTUR
100
AcDbCircle
 10
796.9151367835
 20
1993.5562900934
 30
0.0
 40
6.749932500000037
100
AcDbArc
 50
236.9770620645
 51
243.5782769131
  0
LINE
  5
31C
330
1F
100
AcDbEntity
  8
KONTUR
100
AcDbLine
 10
793.9115872782
 20
1990.0754482838
 30
0.0
 11
793.9115872782
 21
1987.5114345018
 31
0.0
  0
LINE
  5
31D
330
1F
100
AcDbEntity
  8
KONTUR
100
AcDbLine
 10
793.9115872782
 20
1990.0754482838
 30
0.0
 11
796.5776401585
 21
1992.7415011641
 31
0.0
  0
LINE
  5
31E
330
1F
100
AcDbEntity
  8
KONTUR
100
AcDbLine
 10
796.5776401585
 20
1988.9711330228
 30
0.0
 11
796.5776401585
 21
1992.7415011641
 31
0.0
  0
LINE
  5
31F
330
1F
100
AcDbEntity
  8
KONTUR
100
AcDbLine
 10
796.5776401585
 20
1988.9711330228
 30
0.0
 11
794.7646086262
 21
1987.1581014905
 31
0.0
  0
ARC
  5
320
330
1F
100
AcDbEntity
  8
KONTUR
100
AcDbCircle
 10
796.9151367835
 20
1993.5562900934
 30
0.0
 40
6.749932500000094
100
AcDbArc
 50
251.421723087
 51
258.0229379355
  0
LINE
  5
321
330
1F
100
AcDbEntity
  8
KONTUR
100
AcDbLine
 10
796.5776401585
 20
1986.8148002891
 30
0.0
 11
796.5776401585
 21
1988.0165484141
 31
0.0
  0
ARC
  5
322
330
1F
100
AcDbEntity
  8
KONTUR
100
AcDbCircle
 10
796.9151367835
 20
1993.5562900934
 30
0.0
 40
6.749932500000067
100
AcDbArc
 50
267.1340160174
 51
272.8659839826
  0
LINE
  5
323
330
1F
100
AcDbEntity
  8
KONTUR
100
AcDbLine
 10
797.2526334085
 20
1986.8148002891
 30
0.0
 11
797.2526334085
 21
1988.0165484141
 31
0.0
  0
LINE
  5
324
330
1F
100
AcDbEntity
  8
KONTUR
100
AcDbLine
 10
797.2526334085
 20
1988.0165484141
 30
0.0
 11
798.3158833167
 21
1986.953298506
 31
0.0
  0
ARC
  5
325
330
1F
100
AcDbEntity
  8
KONTUR
100
AcDbCircle
 10
796.9151367835
 20
1993.5562900934
 30
0.0
 40
6.749932500002673
100
AcDbArc
 50
281.9770620645
 51
288.5782769131
  0
LINE
  5
326
330
1F
100
AcDbEntity
  8
KONTUR
100
AcDbLine
 10
797.2526334085
 20
1988.9711330228
 30
0.0
 11
799.0656649408
 21
1987.1581014905
 31
0.0
  0
LINE
  5
327
330
1F
100
AcDbEntity
  8
KONTUR
100
AcDbLine
 10
797.2526334085
 20
1988.9711330228
 30
0.0
 11
797.2526334085
 21
1992.7415011641
 31
0.0
  0
LINE
  5
328
330
1F
100
AcDbEntity
  8
KONTUR
100
AcDbLine
 10
799.9186862889
 20
1990.0754482838
 30
0.0
 11
797.2526334085
 21
1992.7415011641
 31
0.0
  0
LINE
  5
329
330
1F
100
AcDbEntity
  8
KONTUR
100
AcDbLine
 10
799.9186862889
 20
1990.0754482838
 30
0.0
 11
799.9186862889
 21
1987.5114345018
 31
0.0
  0
ARC
  5
32A
330
1F
100
AcDbEntity
  8
KONTUR
100
AcDbCircle
 10
796.9151367835
 20
1993.5562900934
 30
0.0
 40
6.749932500005047
100
AcDbArc
 50
296.421723087
 51
303.0229379355
  0
LINE
  5
32B
330
1F
100
AcDbEntity
  8
KONTUR
100
AcDbLine
 10
800.5936795389
 20
1989.4004550338
 30
0.0
 11
800.5936795389
 21
1987.8967925935
 31
0.0
  0
LINE
  5
32C
330
1F
100
AcDbEntity
  8
KONTUR
100
AcDbLine
 10
801.4434437874
 20
1988.5506907853
 30
0.0
 11
800.5936795389
 21
1989.4004550338
 31
0.0
  0
ARC
  5
32D
330
1F
100
AcDbEntity
  8
KONTUR
100
AcDbCircle
 10
796.9151367835
 20
1993.5562900934
 30
0.0
 40
6.749932500001253
100
AcDbArc
 50
312.1340160174
 51
317.8659839826
  0
LINE
  5
32E
330
1F
100
AcDbEntity
  8
KONTUR
100
AcDbLine
 10
801.9207360917
 20
1989.0279830896
 30
0.0
 11
801.0709718432
 21
1989.8777473381
 31
0.0
  0
LINE
  5
32F
330
1F
100
AcDbEntity
  8
KONTUR
100
AcDbLine
 10
801.0709718432
 20
1989.8777473381
 30
0.0
 11
802.5746342835
 21
1989.8777473381
 31
0.0
  0
ARC
  5
330
330
1F
100
AcDbEntity
  8
KONTUR
100
AcDbCircle
 10
796.9151367835
 20
1993.5562900934
 30
0.0
 40
6.749932500000297
100
AcDbArc
 50
326.9770620645
 51
333.5782769131
  0
LINE
  5
331
330
1F
100
AcDbEntity
  8
KONTUR
100
AcDbLine
 10
800.3959785932
 20
1990.5527405881
 30
0.0
 11
802.9599923752
 21
1990.5527405881
 31
0.0
  0
LINE
  5
332
330
1F
100
AcDbEntity
  8
KONTUR
100
AcDbLine
 10
800.3959785932
 20
1990.5527405881
 30
0.0
 11
797.7299257129
 21
1993.2187934685
 31
0.0
  0
LINE
  5
333
330
1F
100
AcDbEntity
  8
KONTUR
100
AcDbLine
 10
801.5002938542
 20
1993.2187934685
 30
0.0
 11
797.7299257129
 21
1993.2187934685
 31
0.0
  0
LINE
  5
334
330
1F
100
AcDbEntity
  8
KONTUR
100
AcDbLine
 10
801.5002938542
 20
1993.2187934685
 30
0.0
 11
803.3133253865
 21
1991.4057619362
 31
0.0
  0
ARC
  5
335
330
1F
100
AcDbEntity
  8
KONTUR
100
AcDbCircle
 10
796.9151367835
 20
1993.5562900934
 30
0.0
 40
6.74993250000095
100
AcDbArc
 50
341.421723087
 51
348.0229379355
  0
LINE
  5
336
330
1F
100
AcDbEntity
  8
KONTUR
100
AcDbLine
 10
803.6566265879
 20
1993.2187934684
 30
0.0
 11
802.4548784629
 21
1993.2187934684
 31
0.0
  0
ARC
  5
337
330
1F
100
AcDbEntity
  8
KONTUR
100
AcDbCircle
 10
796.9151367835
 20
1993.5562900934
 30
0.0
 40
6.749932500007646
100
AcDbArc
 50
357.1340160174
 51
2.8659839826
  0
LINE
  5
338
330
1F
100
AcDbEntity
  8
KONTUR
100
AcDbLine
 10
803.6566265879
 20
1993.8937867184
 30
0.0
 11
802.4548784629
 21
1993.8937867184
 31
0.0
  0
LINE
  5
339
330
1F
100
AcDbEntity
  8
KONTUR
100
AcDbLine
 10
802.4548784629
 20
1993.8937867184
 30
0.0
 11
803.518128371
 21
1994.9570366266
 31
0.0
  0
ARC
  5
33A
330
1F
100
AcDbEntity
  8
KONTUR
100
AcDbCircle
 10
796.9151367835
 20
1993.5562900934
 30
0.0
 40
6.74993250000952
100
AcDbArc
 50
11.9770620645
 51
18.578276913
  0
LINE
  5
33B
330
1F
100
AcDbEntity
  8
KONTUR
100
AcDbLine
 10
801.5002938542
 20
1993.8937867184
 30
0.0
 11
803.3133253865
 21
1995.7068182508
 31
0.0
  0
LINE
  5
33C
330
1F
100
AcDbEntity
  8
KONTUR
100
AcDbLine
 10
801.5002938542
 20
1993.8937867184
 30
0.0
 11
797.7299257129
 21
1993.8937867184
 31
0.0
  0
LINE
  5
33D
330
1F
100
AcDbEntity
  8
KONTUR
100
AcDbLine
 10
800.3959785932
 20
1996.5598395988
 30
0.0
 11
797.7299257129
 21
1993.8937867184
 31
0.0
  0
LINE
  5
33E
330
1F
100
AcDbEntity
  8
KONTUR
100
AcDbLine
 10
800.3959785932
 20
1996.5598395988
 30
0.0
 11
802.9599923752
 21
1996.5598395988
 31
0.0
  0
ARC
  5
33F
330
1F
100
AcDbEntity
  8
KONTUR
100
AcDbCircle
 10
796.9151367835
 20
1993.5562900934
 30
0.0
 40
6.749932500007624
100
AcDbArc
 50
26.4217230869
 51
33.0229379355
  0
LINE
  5
340
330
1F
100
AcDbEntity
  8
KONTUR
100
AcDbLine
 10
801.0709718432
 20
1997.2348328488
 30
0.0
 11
802.5746342835
 21
1997.2348328488
 31
0.0
  0
LINE
  5
341
330
1F
100
AcDbEntity
  8
KONTUR
100
AcDbLine
 10
801.9207360917
 20
1998.0845970973
 30
0.0
 11
801.0709718432
 21
1997.2348328488
 31
0.0
  0
ARC
  5
342
330
1F
100
AcDbEntity
  8
KONTUR
100
AcDbCircle
 10
796.9151367835
 20
1993.5562900934
 30
0.0
 40
6.749932500000318
100
AcDbArc
 50
42.1340160174
 51
47.8659839826
  0
LINE
  5
343
330
1F
100
AcDbEntity
  8
KONTUR
100
AcDbLine
 10
801.4434437874
 20
1998.5618894016
 30
0.0
 11
800.5936795389
 21
1997.7121251531
 31
0.0
  0
LINE
  5
344
330
1F
100
AcDbEntity
  8
KONTUR
100
AcDbLine
 10
800.5936795389
 20
1997.7121251531
 30
0.0
 11
800.5936795389
 21
1999.2157875934
 31
0.0
  0
ARC
  5
345
330
1F
100
AcDbEntity
  8
KONTUR
100
AcDbCircle
 10
796.9151367835
 20
1993.5562900934
 30
0.0
 40
6.749932500002568
100
AcDbArc
 50
56.9770620645
 51
63.578276913
  0
LINE
  5
346
330
1F
100
AcDbEntity
  8
KONTUR
100
AcDbLine
 10
799.9186862889
 20
1997.0371319031
 30
0.0
 11
799.9186862889
 21
1999.6011456851
 31
0.0
  0
LINE
  5
347
330
1F
100
AcDbEntity
  8
KONTUR
100
AcDbLine
 10
799.9186862889
 20
1997.0371319031
 30
0.0
 11
797.2526334085
 21
1994.3710790228
 31
0.0
  0
LINE
  5
348
330
1F
100
AcDbEntity
  8
KONTUR
100
AcDbLine
 10
797.2526334085
 20
1998.1414471641
 30
0.0
 11
797.2526334085
 21
1994.3710790228
 31
0.0
  0
LINE
  5
349
330
1F
100
AcDbEntity
  8
KONTUR
100
AcDbLine
 10
797.2526334085
 20
1998.1414471641
 30
0.0
 11
799.0656649408
 21
1999.9544786964
 31
0.0
  0
ARC
  5
34A
330
1F
100
AcDbEntity
  8
KONTUR
100
AcDbCircle
 10
796.9151367835
 20
1993.5562900934
 30
0.0
 40
6.749932500000727
100
AcDbArc
 50
71.4217230869
 51
78.0229379355
  0
LINE
  5
34B
330
1F
100
AcDbEntity
  8
KONTUR
100
AcDbLine
 10
797.2526334085
 20
1999.0960317728
 30
0.0
 11
798.3158833167
 21
2000.1592816809
 31
0.0
  0
LINE
  5
34C
330
1F
100
AcDbEntity
  8
KONTUR
100
AcDbLine
 10
797.2526334085
 20
2000.2977798978
 30
0.0
 11
797.2526334085
 21
1999.0960317728
 31
0.0
  0
ARC
  5
34D
330
1F
100
AcDbEntity
  8
KONTUR
100
AcDbCircle
 10
796.9151367835
 20
1993.5562900934
 30
0.0
 40
6.749932499999675
100
AcDbArc
 50
87.1340160174
 51
92.8659839826
  0
LINE
  5
34E
330
1F
100
AcDbEntity
  8
KONTUR
100
AcDbLine
 10
796.5776401585
 20
2000.2977798978
 30
0.0
 11
796.5776401585
 21
1999.0960317728
 31
0.0
  0
LINE
  5
34F
330
1F
100
AcDbEntity
  8
KONTUR
100
AcDbLine
 10
796.5776401585
 20
1999.0960317728
 30
0.0
 11
795.5143902504
 21
2000.1592816809
 31
0.0
  0
ARC
  5
350
330
1F
100
AcDbEntity
  8
KONTUR
100
AcDbCircle
 10
796.9151367835
 20
1993.5562900934
 30
0.0
 40
6.749932499998512
100
AcDbArc
 50
101.9770620645
 51
108.578276913
  0
LINE
  5
351
330
1F
100
AcDbEntity
  8
KONTUR
100
AcDbLine
 10
796.5776401585
 20
1998.1414471641
 30
0.0
 11
794.7646086262
 21
1999.9544786964
 31
0.0
  0
LINE
  5
352
330
1F
100
AcDbEntity
  8
KONTUR
100
AcDbLine
 10
796.5776401585
 20
1998.1414471641
 30
0.0
 11
796.5776401585
 21
1994.3710790228
 31
0.0
  0
LINE
  5
353
330
1F
100
AcDbEntity
  8
KONTUR
100
AcDbLine
 10
793.9115872782
 20
1997.0371319031
 30
0.0
 11
796.5776401585
 21
1994.3710790228
 31
0.0
  0
LINE
  5
354
330
1F
100
AcDbEntity
  8
KONTUR
100
AcDbLine
 10
793.9115872782
 20
1997.0371319031
 30
0.0
 11
793.9115872782
 21
1999.6011456851
 31
0.0
  0
ARC
  5
355
330
1F
100
AcDbEntity
  8
KONTUR
100
AcDbCircle
 10
796.9151367835
 20
1993.5562900934
 30
0.0
 40
6.749932499997649
100
AcDbArc
 50
116.4217230869
 51
123.0229379355
  0
LINE
  5
356
330
1F
100
AcDbEntity
  8
KONTUR
100
AcDbLine
 10
793.2365940282
 20
1997.7121251531
 30
0.0
 11
793.2365940282
 21
1999.2157875934
 31
0.0
  0
LINE
  5
357
330
1F
100
AcDbEntity
  8
KONTUR
100
AcDbLine
 10
792.3868297797
 20
1998.5618894016
 30
0.0
 11
793.2365940282
 21
1997.7121251531
 31
0.0
  0
ARC
  5
358
330
1F
100
AcDbEntity
  8
KONTUR
100
AcDbCircle
 10
796.9151367835
 20
1993.5562900934
 30
0.0
 40
6.749932499997103
100
AcDbArc
 50
132.1340160174
 51
137.8659839826
  0
LINE
  5
359
330
1F
100
AcDbEntity
  8
KONTUR
100
AcDbLine
 10
791.9095374754
 20
1998.0845970973
 30
0.0
 11
792.7593017239
 21
1997.2348328488
 31
0.0
  0
LINE
  5
35A
330
1F
100
AcDbEntity
  8
KONTUR
100
AcDbLine
 10
792.7593017239
 20
1997.2348328488
 30
0.0
 11
791.2556392836
 21
1997.2348328488
 31
0.0
  0
ARC
  5
35B
330
1F
100
AcDbEntity
  8
KONTUR
100
AcDbCircle
 10
796.9151367835
 20
1993.5562900934
 30
0.0
 40
6.749932499996348
100
AcDbArc
 50
146.9770620645
 51
153.5782769131
  0
LINE
  5
35C
330
1F
100
AcDbEntity
  8
KONTUR
100
AcDbLine
 10
793.4342949739
 20
1996.5598395988
 30
0.0
 11
790.8702811919
 21
1996.5598395988
 31
0.0
  0
LINE
  5
35D
330
1F
100
AcDbEntity
  8
KONTUR
100
AcDbLine
 10
793.4342949739
 20
1996.5598395988
 30
0.0
 11
796.1003478542
 21
1993.8937867184
 31
0.0
  0
LINE
  5
35E
330
1F
100
AcDbEntity
  8
KONTUR
100
AcDbLine
 10
792.3299797129
 20
1993.8937867184
 30
0.0
 11
796.1003478542
 21
1993.8937867184
 31
0.0
  0
LINE
  5
35F
330
1F
100
AcDbEntity
  8
KONTUR
100
AcDbLine
 10
792.3299797129
 20
1993.8937867184
 30
0.0
 11
790.5169481806
 21
1995.7068182507
 31
0.0
  0
ARC
  5
360
330
1F
100
AcDbEntity
  8
KONTUR
100
AcDbCircle
 10
796.9151367835
 20
1993.5562900934
 30
0.0
 40
6.74993249999996
100
AcDbArc
 50
161.421723087
 51
168.0229379355
  0
LINE
  5
361
330
1F
100
AcDbEntity
  8
KONTUR
100
AcDbLine
 10
791.3753951042
 20
1993.8937867184
 30
0.0
 11
790.3121451961
 21
1994.9570366266
 31
0.0
  0
LINE
  5
362
330
1F
100
AcDbEntity
  8
KONTUR
100
AcDbLine
 10
790.1736469792
 20
1993.8937867184
 30
0.0
 11
791.3753951042
 21
1993.8937867184
 31
0.0
  0
ARC
  5
363
330
1F
100
AcDbEntity
  8
KONTUR
100
AcDbCircle
 10
796.9151367835
 20
1993.5562900934
 30
0.0
 40
6.749932499995531
100
AcDbArc
 50
177.1340160174
 51
182.8659839826
  0
LINE
  5
364
330
1F
100
AcDbEntity
  8
KONTUR
100
AcDbLine
 10
790.1736469792
 20
1993.2187934684
 30
0.0
 11
791.3753951042
 21
1993.2187934684
 31
0.0
  0
LINE
  5
365
330
1F
100
AcDbEntity
  8
KONTUR
100
AcDbLine
 10
791.3753951042
 20
1993.2187934684
 30
0.0
 11
790.3121451961
 21
1992.1555435603
 31
0.0
  0
ARC
  5
366
330
1F
100
AcDbEntity
  8
KONTUR
100
AcDbCircle
 10
796.9151367835
 20
1993.5562900934
 30
0.0
 40
6.749932499993844
100
AcDbArc
 50
191.9770620645
 51
198.5782769131
  0
LINE
  5
367
330
1F
100
AcDbEntity
  8
KONTUR
100
AcDbLine
 10
792.3299797129
 20
1993.2187934684
 30
0.0
 11
790.5169481806
 21
1991.4057619361
 31
0.0
  0
LINE
  5
368
330
1F
100
AcDbEntity
  8
KONTUR
100
AcDbLine
 10
792.3299797129
 20
1993.2187934684
 30
0.0
 11
796.1003478542
 21
1993.2187934684
 31
0.0
  0
LINE
  5
369
330
1F
100
AcDbEntity
  8
KONTUR
100
AcDbLine
 10
793.4342949739
 20
1990.5527405881
 30
0.0
 11
796.1003478542
 21
1993.2187934684
 31
0.0
  0
LINE
  5
36A
330
1F
100
AcDbEntity
  8
KONTUR
100
AcDbLine
 10
793.4342949739
 20
1990.5527405881
 30
0.0
 11
790.8702811919
 21
1990.5527405881
 31
0.0
  0
ARC
  5
36B
330
1F
100
AcDbEntity
  8
KONTUR
100
AcDbCircle
 10
796.9151367835
 20
1993.5562900934
 30
0.0
 40
6.749932499995127
100
AcDbArc
 50
206.421723087
 51
213.0229379355
  0
LINE
  5
36C
330
1F
100
AcDbEntity
  8
KONTUR
100
AcDbLine
 10
792.7593017239
 20
1989.8777473381
 30
0.0
 11
791.2556392836
 21
1989.8777473381
 31
0.0
  0
LINE
  5
36D
330
1F
100
AcDbEntity
  8
KONTUR
100
AcDbLine
 10
791.9095374754
 20
1989.0279830896
 30
0.0
 11
792.7593017239
 21
1989.8777473381
 31
0.0
  0
ARC
  5
36E
330
1F
100
AcDbEntity
  8
KONTUR
100
AcDbCircle
 10
796.9151367835
 20
1993.5562900934
 30
0.0
 40
6.749932499999948
100
AcDbArc
 50
222.1340160174
 51
227.8659839826
  0
LINE
  5
36F
330
1F
100
AcDbEntity
  8
KONTUR
100
AcDbLine
 10
792.3868297797
 20
1988.5506907853
 30
0.0
 11
793.2365940282
 21
1989.4004550338
 31
0.0
  0
LINE
  5
370
330
1F
100
AcDbEntity
  8
KONTUR
100
AcDbLine
 10
796.5776401585
 20
1988.0165484141
 30
0.0
 11
795.5143902504
 21
1986.953298506
 31
0.0
  0
LINE
  5
371
330
1F
100
AcDbEntity
  8
KONTUR
100
AcDbLine
 10
802.4548784629
 20
1993.2187934684
 30
0.0
 11
803.518128371
 21
1992.1555435603
 31
0.0
  0
ARC
  5
372
330
1F
100
AcDbEntity
  8
KONTUR
100
AcDbCircle
 10
782.0652852835
 20
1993.5562900935
 30
0.0
 40
6.749932499988644
100
AcDbArc
 50
71.421723087
 51
78.0229379355
  0
LINE
  5
373
330
1F
100
AcDbEntity
  8
KONTUR
100
AcDbLine
 10
786.4866615282
 20
1978.7892840812
 30
0.0
 11
786.4866615282
 21
1981.3532978632
 31
0.0
  0
ARC
  5
374
330
1F
100
AcDbEntity
  8
KONTUR
100
AcDbCircle
 10
789.4902110336
 20
1975.3084422715
 30
0.0
 40
6.749932499999189
100
AcDbArc
 50
146.9770620645
 51
153.5782769131
  0
LINE
  5
375
330
1F
100
AcDbEntity
  8
KONTUR
100
AcDbLine
 10
783.9504693542
 20
1975.6459388965
 30
0.0
 11
782.8872194461
 21
1976.7091888047
 31
0.0
  0
ARC
  5
376
330
1F
100
AcDbEntity
  8
KONTUR
100
AcDbCircle
 10
789.4902110336
 20
1975.3084422715
 30
0.0
 40
6.749932499997961
100
AcDbArc
 50
177.1340160174
 51
182.8659839826
  0
ARC
  5
377
330
1F
100
AcDbEntity
  8
KONTUR
100
AcDbCircle
 10
1119.7491379206
 20
2007.1812652411
 30
0.0
 40
433.9000000000002
100
AcDbArc
 50
185.7537691588
 51
195.1638943503
  0
LINE
  5
378
330
1F
100
AcDbEntity
  8
KONTUR
100
AcDbLine
 10
700.9568743818
 20
1893.6812652411
 30
0.0
 11
699.3852955174
 21
1893.6812652411
 31
0.0
  0
ARC
  5
379
330
1F
100
AcDbEntity
  8
KONTUR
100
AcDbCircle
 10
699.3852955174
 20
1895.6812652411
 30
0.0
 40
2.000000000000227
100
AcDbArc
 50
194.8554180962
 51
270.0
  0
ARC
  5
37A
330
1F
100
AcDbEntity
  8
KONTUR
100
AcDbCircle
 10
1119.7491379206
 20
2007.1812652411
 30
0.0
 40
436.9000000000002
100
AcDbArc
 50
185.7141285894
 51
194.8554180962
  0
LINE
  5
37B
330
1F
100
AcDbEntity
  8
KONTUR
100
AcDbLine
 10
688.0351585315
 20
1963.6812652411
 30
0.0
 11
685.0200728697
 21
1963.6812652411
 31
0.0
  0
ARC
  5
37C
330
1F
100
AcDbEntity
  8
KONTUR
100
AcDbCircle
 10
834.1167708975
 20
1972.5035812581
 30
0.0
 40
1.404695642828602
100
AcDbArc
 50
176.2924509041
 51
241.5808880535
  0
ARC
  5
37D
330
1F
100
AcDbEntity
  8
KONTUR
100
AcDbCircle
 10
834.1687310021
 20
1972.5978374421
 30
0.0
 40
1.453719900382998
100
AcDbArc
 50
119.7100446049
 51
180.1349210477
  0
ARC
  5
37E
330
1F
100
AcDbEntity
  8
KONTUR
100
AcDbCircle
 10
835.322976616
 20
1970.7361473959
 30
0.0
 40
3.64361241231168
100
AcDbArc
 50
92.8885888717
 51
120.9656267363
  0
ARC
  5
37F
330
1F
100
AcDbEntity
  8
KONTUR
100
AcDbCircle
 10
836.4660029701
 20
1975.2191087302
 30
0.0
 40
0.674993249999656
100
AcDbArc
 50
278.5532723501
 51
296.1302263385
  0
LINE
  5
380
330
1F
100
AcDbEntity
  8
KONTUR
100
AcDbLine
 10
837.315124517
 20
1974.8838104961
 30
0.0
 11
836.7632786794
 21
1974.6131029214
 31
0.0
  0
ARC
  5
381
330
1F
100
AcDbEntity
  8
KONTUR
100
AcDbCircle
 10
834.1914467653
 20
1973.7317393937
 30
0.0
 40
3.124576908097882
100
AcDbArc
 50
336.5378418415
 51
358.6254198156
  0
ARC
  5
382
330
1F
100
AcDbEntity
  8
KONTUR
100
AcDbCircle
 10
834.8835236397
 20
1973.3897651997
 30
0.0
 40
2.353873236615192
100
AcDbArc
 50
295.6725115709
 51
337.466618392
  0
ARC
  5
383
330
1F
100
AcDbEntity
  8
KONTUR
100
AcDbCircle
 10
834.6756497006
 20
1974.5323869241
 30
0.0
 40
3.487355261950849
100
AcDbArc
 50
249.3929551628
 51
290.6111971247
  0
ARC
  5
384
330
1F
100
AcDbEntity
  8
KONTUR
100
AcDbCircle
 10
832.4892964271
 20
2001.6596815846
 30
0.0
 40
27.41294544899437
100
AcDbArc
 50
275.5475605235
 51
278.5532723453
  0
LINE
  5
385
330
1F
100
AcDbEntity
  8
KONTUR
100
AcDbLine
 10
837.315124517
 20
1974.8838104961
 30
0.0
 11
837.315124517
 21
1973.6567850159
 31
0.0
  0
ARC
  5
386
330
1F
100
AcDbEntity
  8
KONTUR
100
AcDbCircle
 10
822.089150045
 20
1976.7886618669
 30
0.0
 40
2.459634539618668
100
AcDbArc
 50
21.0676596702
 51
158.9323403298
  0
ARC
  5
387
330
1F
100
AcDbEntity
  8
KONTUR
100
AcDbCircle
 10
816.5558891052
 20
1974.8272157296
 30
0.0
 40
8.329626817616498
100
AcDbArc
 50
3.311986424
 51
19.9759276326
  0
ARC
  5
388
330
1F
100
AcDbEntity
  8
KONTUR
100
AcDbCircle
 10
815.0457837565
 20
1975.8289706454
 30
0.0
 40
9.839597608760798
100
AcDbArc
 50
341.6375284539
 51
356.9675581866
  0
ARC
  5
389
330
1F
100
AcDbEntity
  8
KONTUR
100
AcDbCircle
 10
822.089150045
 20
1973.6133923977
 30
0.0
 40
2.459634539618284
100
AcDbArc
 50
201.0676596702
 51
338.9323403298
  0
ARC
  5
38A
330
1F
100
AcDbEntity
  8
KONTUR
100
AcDbCircle
 10
825.5109170848
 20
1975.1035743765
 30
0.0
 40
6.190437218844887
100
AcDbArc
 50
178.1034926884
 51
202.5538018522
  0
ARC
  5
38B
330
1F
100
AcDbEntity
  8
KONTUR
100
AcDbCircle
 10
824.5653013696
 20
1975.4953291075
 30
0.0
 40
5.244761331461107
100
AcDbArc
 50
155.4696123816
 51
182.0420555953
  0
CIRCLE
  5
38C
330
1F
100
AcDbEntity
  8
KONTUR
100
AcDbCircle
 10
865.8460037774
 20
1985.4334174192
 30
0.0
 40
2.5
  0
LINE
  5
38D
330
1F
100
AcDbEntity
  8
KONTUR
100
AcDbLine
 10
864.9506022753
 20
1987.2384861094
 30
0.0
 11
866.505132707
 21
1987.2384861094
 31
0.0
  0
LINE
  5
38E
330
1F
100
AcDbEntity
  8
KONTUR
100
AcDbLine
 10
864.9506022753
 20
1983.6603141921
 30
0.0
 11
864.9506022753
 21
1987.2384861094
 31
0.0
  0
LINE
  5
38F
330
1F
100
AcDbEntity
  8
KONTUR
100
AcDbLine
 10
864.9506022753
 20
1983.6603141921
 30
0.0
 11
865.4506022753
 21
1983.6603141921
 31
0.0
  0
LINE
  5
390
330
1F
100
AcDbEntity
  8
KONTUR
100
AcDbLine
 10
865.4506022753
 20
1983.6603141921
 30
0.0
 11
865.4506022753
 21
1985.5263354922
 31
0.0
  0
LINE
  5
391
330
1F
100
AcDbEntity
  8
KONTUR
100
AcDbLine
 10
866.7937795736
 20
1983.5856332783
 30
0.0
 11
865.56671186
 21
1985.5263354922
 31
0.0
  0
LINE
  5
392
330
1F
100
AcDbEntity
  8
KONTUR
100
AcDbLine
 10
866.7937795736
 20
1983.5856332783
 30
0.0
 11
867.2163901586
 21
1983.8528416117
 31
0.0
  0
ARC
  5
393
330
1F
100
AcDbEntity
  8
KONTUR
100
AcDbCircle
 10
866.27371399
 20
1986.3941585993
 30
0.0
 40
0.8754676276239277
100
AcDbArc
 50
262.4227915124
 51
74.6724233821
  0
LINE
  5
394
330
1F
100
AcDbEntity
  8
KONTUR
100
AcDbLine
 10
865.56671186
 20
1985.5263354922
 30
0.0
 11
865.4506022753
 21
1985.5263354922
 31
0.0
  0
LINE
  5
395
330
1F
100
AcDbEntity
  8
KONTUR
100
AcDbLine
 10
867.2163901586
 20
1983.8528416117
 30
0.0
 11
866.1582730013
 21
1985.5263354922
 31
0.0
  0
LINE
  5
396
330
1F
100
AcDbEntity
  8
KONTUR
100
AcDbLine
 10
865.4506022753
 20
1986.0246214697
 30
0.0
 11
865.4506022753
 21
1986.7384861094
 31
0.0
  0
LINE
  5
397
330
1F
100
AcDbEntity
  8
KONTUR
100
AcDbLine
 10
865.4506022753
 20
1986.7384861094
 30
0.0
 11
866.4234287359
 21
1986.7384861094
 31
0.0
  0
ARC
  5
398
330
1F
100
AcDbEntity
  8
KONTUR
100
AcDbCircle
 10
866.27371399
 20
1986.3941585993
 30
0.0
 40
0.3754676276238413
100
AcDbArc
 50
262.4227915123
 51
66.5004361415
  0
LINE
  5
399
330
1F
100
AcDbEntity
  8
KONTUR
100
AcDbLine
 10
866.2242040449
 20
1986.0219695281
 30
0.0
 11
865.4506022753
 21
1986.0246214697
 31
0.0
  0
LINE
  5
39A
330
1F
100
AcDbEntity
  8
KONTUR
100
AcDbLine
 10
795.1339174212
 20
1944.7062652411
 30
0.0
 11
789.7839174212
 21
1950.0062652411
 31
0.0
  0
LINE
  5
39B
330
1F
100
AcDbEntity
  8
KONTUR
100
AcDbLine
 10
793.2089174212
 20
1944.7062652411
 30
0.0
 11
795.1339174212
 21
1944.7062652411
 31
0.0
  0
LINE
  5
39C
330
1F
100
AcDbEntity
  8
KONTUR
100
AcDbLine
 10
793.2089174212
 20
1942.8562652411
 30
0.0
 11
793.2089174212
 21
1944.7062652411
 31
0.0
  0
LINE
  5
39D
330
1F
100
AcDbEntity
  8
KONTUR
100
AcDbLine
 10
786.3589174212
 20
1942.8562652411
 30
0.0
 11
793.2089174212
 21
1942.8562652411
 31
0.0
  0
LINE
  5
39E
330
1F
100
AcDbEntity
  8
KONTUR
100
AcDbLine
 10
786.3589174212
 20
1944.7062652411
 30
0.0
 11
786.3589174212
 21
1942.8562652411
 31
0.0
  0
LINE
  5
39F
330
1F
100
AcDbEntity
  8
KONTUR
100
AcDbLine
 10
784.4339174212
 20
1944.7062652411
 30
0.0
 11
786.3589174212
 21
1944.7062652411
 31
0.0
  0
LINE
  5
3A0
330
1F
100
AcDbEntity
  8
KONTUR
100
AcDbLine
 10
789.7839174212
 20
1950.0062652411
 30
0.0
 11
784.4339174212
 21
1944.7062652411
 31
0.0
  0
ARC
  5
3A1
330
1F
100
AcDbEntity
  8
KONTUR
100
AcDbCircle
 10
784.2839174212
 20
1940.9312652411
 30
0.0
 40
2.5
100
AcDbArc
 50
180.0
 51
270.0
  0
LINE
  5
3A2
330
1F
100
AcDbEntity
  8
KONTUR
100
AcDbLine
 10
784.2839174212
 20
1938.4312652411
 30
0.0
 11
795.2839174212
 21
1938.4312652411
 31
0.0
  0
ARC
  5
3A3
330
1F
100
AcDbEntity
  8
KONTUR
100
AcDbCircle
 10
795.2839174212
 20
1940.9312652411
 30
0.0
 40
2.5
100
AcDbArc
 50
270.0
 51
0.0
  0
LINE
  5
3A4
330
1F
100
AcDbEntity
  8
KONTUR
100
AcDbLine
 10
797.7839174212
 20
1940.9312652411
 30
0.0
 11
797.7839174212
 21
1951.9312652411
 31
0.0
  0
ARC
  5
3A5
330
1F
100
AcDbEntity
  8
KONTUR
100
AcDbCircle
 10
795.2839174212
 20
1951.9312652411
 30
0.0
 40
2.5
100
AcDbArc
 50
0.0
 51
90.0
  0
LINE
  5
3A6
330
1F
100
AcDbEntity
  8
KONTUR
100
AcDbLine
 10
784.2839174212
 20
1954.4312652411
 30
0.0
 11
795.2839174212
 21
1954.4312652411
 31
0.0
  0
ARC
  5
3A7
330
1F
100
AcDbEntity
  8
KONTUR
100
AcDbCircle
 10
784.2839174212
 20
1951.9312652411
 30
0.0
 40
2.5
100
AcDbArc
 50
90.0
 51
180.0
  0
LINE
  5
3A8
330
1F
100
AcDbEntity
  8
KONTUR
100
AcDbLine
 10
781.7839174212
 20
1940.9312652411
 30
0.0
 11
781.7839174212
 21
1951.9312652411
 31
0.0
  0
ARC
  5
3A9
330
1F
100
AcDbEntity
  8
KONTUR
100
AcDbCircle
 10
842.7839174212
 20
1919.9312652411
 30
0.0
 40
3.24999999999979
100
AcDbArc
 50
112.619864948
 51
67.380135052
  0
LINE
  5
3AA
330
1F
100
AcDbEntity
  8
KONTUR
100
AcDbLine
 10
844.6108404981
 20
1924.3158806257
 30
0.0
 11
844.0339174212
 21
1922.9312652411
 31
0.0
  0
ARC
  5
3AB
330
1F
100
AcDbEntity
  8
KONTUR
100
AcDbCircle
 10
842.7839174212
 20
1919.9312652411
 30
0.0
 40
4.750000000000131
100
AcDbArc
 50
112.619864948
 51
67.380135052
  0
LINE
  5
3AC
330
1F
100
AcDbEntity
  8
KONTUR
100
AcDbLine
 10
842.0339174212
 20
1925.4312652411
 30
0.0
 11
843.5339174212
 21
1925.4312652411
 31
0.0
  0
LINE
  5
3AD
330
1F
100
AcDbEntity
  8
KONTUR
100
AcDbLine
 10
843.5339174212
 20
1925.4312652411
 30
0.0
 11
843.5339174212
 21
1920.9312652411
 31
0.0
  0
LINE
  5
3AE
330
1F
100
AcDbEntity
  8
KONTUR
100
AcDbLine
 10
842.0339174212
 20
1925.4312652411
 30
0.0
 11
842.0339174212
 21
1920.9312652411
 31
0.0
  0
ARC
  5
3AF
330
1F
100
AcDbEntity
  8
KONTUR
100
AcDbCircle
 10
837.2839174212
 20
1925.4312652411
 30
0.0
 40
2.5
100
AcDbArc
 50
90.0
 51
180.0
  0
ARC
  5
3B0
330
1F
100
AcDbEntity
  8
KONTUR
100
AcDbCircle
 10
837.2839174212
 20
1914.4312652411
 30
0.0
 40
2.500000000000227
100
AcDbArc
 50
180.0
 51
270.0
  0
LINE
  5
3B1
330
1F
100
AcDbEntity
  8
KONTUR
100
AcDbLine
 10
837.2839174212
 20
1911.9312652411
 30
0.0
 11
848.2839174212
 21
1911.9312652411
 31
0.0
  0
ARC
  5
3B2
330
1F
100
AcDbEntity
  8
KONTUR
100
AcDbCircle
 10
848.2839174212
 20
1914.4312652411
 30
0.0
 40
2.500000000000227
100
AcDbArc
 50
270.0
 51
0.0
  0
LINE
  5
3B3
330
1F
100
AcDbEntity
  8
KONTUR
100
AcDbLine
 10
850.7839174212
 20
1914.4312652411
 30
0.0
 11
850.7839174212
 21
1925.4312652411
 31
0.0
  0
ARC
  5
3B4
330
1F
100
AcDbEntity
  8
KONTUR
100
AcDbCircle
 10
848.2839174212
 20
1925.4312652411
 30
0.0
 40
2.5
100
AcDbArc
 50
0.0
 51
90.0
  0
LINE
  5
3B5
330
1F
100
AcDbEntity
  8
KONTUR
100
AcDbLine
 10
837.2839174212
 20
1927.9312652411
 30
0.0
 11
848.2839174212
 21
1927.9312652411
 31
0.0
  0
LINE
  5
3B6
330
1F
100
AcDbEntity
  8
KONTUR
100
AcDbLine
 10
840.9569943443
 20
1924.3158806257
 30
0.0
 11
841.5339174212
 21
1922.9312652411
 31
0.0
  0
LINE
  5
3B7
330
1F
100
AcDbEntity
  8
KONTUR
100
AcDbLine
 10
834.7839174212
 20
1914.4312652411
 30
0.0
 11
834.7839174212
 21
1925.4312652411
 31
0.0
  0
LINE
  5
3B8
330
1F
100
AcDbEntity
  8
KONTUR
100
AcDbLine
 10
842.0339174212
 20
1920.9312652411
 30
0.0
 11
843.5339174212
 21
1920.9312652411
 31
0.0
  0
LINE
  5
3B9
330
1F
100
AcDbEntity
  8
KONTUR
100
AcDbLine
 10
812.2839174212
 20
1911.9312652411
 30
0.0
 11
821.7839174212
 21
1911.9312652411
 31
0.0
  0
ARC
  5
3BA
330
1F
100
AcDbEntity
  8
KONTUR
100
AcDbCircle
 10
821.7839174212
 20
1914.4312652411
 30
0.0
 40
2.500000000000227
100
AcDbArc
 50
270.0
 51
0.0
  0
ARC
  5
3BB
330
1F
100
AcDbEntity
  8
KONTUR
100
AcDbCircle
 10
821.7839174212
 20
1925.4312652411
 30
0.0
 40
2.5
100
AcDbArc
 50
0.0
 51
90.0
  0
LINE
  5
3BC
330
1F
100
AcDbEntity
  8
KONTUR
100
AcDbLine
 10
820.8510823789
 20
1927.9312652411
 30
0.0
 11
821.7839174212
 21
1927.9312652411
 31
0.0
  0
LINE
  5
3BD
330
1F
100
AcDbEntity
  8
KONTUR
100
AcDbLine
 10
812.2839174212
 20
1911.9312652411
 30
0.0
 11
820.8510823789
 21
1927.9312652411
 31
0.0
  0
ARC
  5
3BE
330
1F
100
AcDbEntity
  8
KONTUR
100
AcDbCircle
 10
814.660746301
 20
1917.8664787963
 30
0.0
 40
8.447434684620749
100
AcDbArc
 50
25.2894334995
 51
44.5375268657
  0
LINE
  5
3BF
330
1F
100
AcDbEntity
  8
KONTUR
100
AcDbLine
 10
822.2985902302
 20
1921.4751479227
 30
0.0
 11
822.5500711507
 21
1920.9575986776
 31
0.0
  0
LINE
  5
3C0
330
1F
100
AcDbEntity
  8
KONTUR
100
AcDbLine
 10
823.0789757562
 20
1919.778987025
 30
0.0
 11
822.5500711507
 21
1920.9575986776
 31
0.0
  0
ARC
  5
3C1
330
1F
100
AcDbEntity
  8
KONTUR
100
AcDbCircle
 10
821.612865511
 20
1918.9985515721
 30
0.0
 40
1.660890949857909
100
AcDbArc
 50
317.5639843549
 51
28.0271331601
  0
ARC
  5
3C2
330
1F
100
AcDbEntity
  8
KONTUR
100
AcDbCircle
 10
821.322325304
 20
1919.2830252304
 30
0.0
 40
2.067318759364723
100
AcDbArc
 50
246.4449274187
 51
317.1786403551
  0
ARC
  5
3C3
330
1F
100
AcDbEntity
  8
KONTUR
100
AcDbCircle
 10
821.1837931838
 20
1918.7632856964
 30
0.0
 40
1.537644077534916
100
AcDbArc
 50
217.1443618544
 51
243.4359534569
  0
ARC
  5
3C4
330
1F
100
AcDbEntity
  8
KONTUR
100
AcDbCircle
 10
821.4515839746
 20
1918.9442851413
 30
0.0
 40
1.860478193948527
100
AcDbArc
 50
188.3759579925
 51
216.607846264
  0
LINE
  5
3C5
330
1F
100
AcDbEntity
  8
KONTUR
100
AcDbLine
 10
819.5523862133
 20
1919.044449847
 30
0.0
 11
819.6109504893
 21
1918.6732731805
 31
0.0
  0
ARC
  5
3C6
330
1F
100
AcDbEntity
  8
KONTUR
100
AcDbCircle
 10
820.6842712519
 20
1919.1949388149
 30
0.0
 40
1.141845291707329
100
AcDbArc
 50
167.6371689875
 51
187.5733038839
  0
ARC
  5
3C7
330
1F
100
AcDbEntity
  8
KONTUR
100
AcDbCircle
 10
819.7902005976
 20
1919.4040762383
 30
0.0
 40
0.2240998514032143
100
AcDbArc
 50
143.7335999682
 51
170.9283805441
  0
ARC
  5
3C8
330
1F
100
AcDbEntity
  8
KONTUR
100
AcDbCircle
 10
819.9406887377
 20
1919.2936675217
 30
0.0
 40
0.4107459470186393
100
AcDbArc
 50
131.8828215908
 51
143.7335999681
  0
LINE
  5
3C9
330
1F
100
AcDbEntity
  8
KONTUR
100
AcDbLine
 10
819.6664708964
 20
1919.5994727023
 30
0.0
 11
819.6996744918
 21
1919.6284317627
 31
0.0
  0
LINE
  5
3CA
330
1F
100
AcDbEntity
  8
KONTUR
100
AcDbLine
 10
819.6996744918
 20
1919.6284317627
 30
0.0
 11
819.7859696409
 21
1919.6993466387
 31
0.0
  0
ARC
  5
3CB
330
1F
100
AcDbEntity
  8
KONTUR
100
AcDbCircle
 10
819.2207254778
 20
1920.345514462
 30
0.0
 40
0.8585067383792209
100
AcDbArc
 50
311.1782565251
 51
323.7777755866
  0
LINE
  5
3CC
330
1F
100
AcDbEntity
  8
KONTUR
100
AcDbLine
 10
819.9133096163
 20
1919.8382068326
 30
0.0
 11
819.9379905546
 21
1919.8719016272
 31
0.0
  0
LINE
  5
3CD
330
1F
100
AcDbEntity
  8
KONTUR
100
AcDbLine
 10
819.9379905546
 20
1919.8719016272
 30
0.0
 11
820.0081036053
 21
1919.9737090239
 31
0.0
  0
LINE
  5
3CE
330
1F
100
AcDbEntity
  8
KONTUR
100
AcDbLine
 10
820.0081036053
 20
1919.9737090239
 30
0.0
 11
820.1904036053
 21
1920.2404090239
 31
0.0
  0
ARC
  5
3CF
330
1F
100
AcDbEntity
  8
KONTUR
100
AcDbCircle
 10
816.4498194545
 20
1922.5677490936
 30
0.0
 40
4.4055058267526
100
AcDbArc
 50
328.1106935449
 51
16.1250250992
  0
ARC
  5
3D0
330
1F
100
AcDbEntity
  8
KONTUR
100
AcDbCircle
 10
816.5058005976
 20
1915.2852762383
 30
0.0
 40
0.2240998985551954
100
AcDbArc
 50
143.7335999681
 51
170.9285901752
  0
ARC
  5
3D1
330
1F
100
AcDbEntity
  8
KONTUR
100
AcDbCircle
 10
816.6562887204
 20
1915.1748675343
 30
0.0
 40
0.4107459727443638
100
AcDbArc
 50
131.8830821309
 51
143.7335999681
  0
LINE
  5
3D2
330
1F
100
AcDbEntity
  8
KONTUR
100
AcDbLine
 10
816.3820694713
 20
1915.4806714872
 30
0.0
 11
816.4152744745
 21
1915.5096317754
 31
0.0
  0
LINE
  5
3D3
330
1F
100
AcDbEntity
  8
KONTUR
100
AcDbLine
 10
816.4152744745
 20
1915.5096317754
 30
0.0
 11
816.5015738852
 21
1915.5805501534
 31
0.0
  0
ARC
  5
3D4
330
1F
100
AcDbEntity
  8
KONTUR
100
AcDbCircle
 10
815.9363254605
 20
1916.2267144747
 30
0.0
 40
0.8585069083728206
100
AcDbArc
 50
311.1786244774
 51
323.7777755865
  0
LINE
  5
3D5
330
1F
100
AcDbEntity
  8
KONTUR
100
AcDbLine
 10
816.6289097362
 20
1915.7194067448
 30
0.0
 11
816.6535906745
 21
1915.7531015394
 31
0.0
  0
LINE
  5
3D6
330
1F
100
AcDbEntity
  8
KONTUR
100
AcDbLine
 10
816.6535906745
 20
1915.7531015394
 30
0.0
 11
816.7237037252
 21
1915.8549089361
 31
0.0
  0
LINE
  5
3D7
330
1F
100
AcDbEntity
  8
KONTUR
100
AcDbLine
 10
816.7237037252
 20
1915.8549089361
 30
0.0
 11
816.9060037252
 21
1916.1216089361
 31
0.0
  0
ARC
  5
3D8
330
1F
100
AcDbEntity
  8
KONTUR
100
AcDbCircle
 10
813.1654195744
 20
1918.4489490059
 30
0.0
 40
4.405505826752502
100
AcDbArc
 50
328.1106935448
 51
16.1250250992
  0
LINE
  5
3D9
330
1F
100
AcDbEntity
  8
KONTUR
100
AcDbLine
 10
819.01419035
 20
1917.356347835
 30
0.0
 11
819.2656712705
 21
1916.8387985898
 31
0.0
  0
LINE
  5
3DA
330
1F
100
AcDbEntity
  8
KONTUR
100
AcDbLine
 10
819.7945758761
 20
1915.6601869372
 30
0.0
 11
819.2656712705
 21
1916.8387985898
 31
0.0
  0
ARC
  5
3DB
330
1F
100
AcDbEntity
  8
KONTUR
100
AcDbCircle
 10
818.0382469813
 20
1915.1644426517
 30
0.0
 40
2.067318759364848
100
AcDbArc
 50
246.4449274186
 51
317.1786403553
  0
ARC
  5
3DC
330
1F
100
AcDbEntity
  8
KONTUR
100
AcDbCircle
 10
817.8997148611
 20
1914.6447031176
 30
0.0
 40
1.537644077535063
100
AcDbArc
 50
214.0547091899
 51
243.4359534568
  0
ARC
  5
3DD
330
1F
100
AcDbEntity
  8
KONTUR
100
AcDbCircle
 10
818.1671839746
 20
1914.8254851413
 30
0.0
 40
1.860478193948744
100
AcDbArc
 50
188.3759579916
 51
214.0547091899
  0
LINE
  5
3DE
330
1F
100
AcDbEntity
  8
KONTUR
100
AcDbLine
 10
816.2679862133
 20
1914.925649847
 30
0.0
 11
816.3265504892
 21
1914.5544731805
 31
0.0
  0
ARC
  5
3DF
330
1F
100
AcDbEntity
  8
KONTUR
100
AcDbCircle
 10
817.3998712519
 20
1915.0761388149
 30
0.0
 40
1.141845291707384
100
AcDbArc
 50
167.6372101979
 51
187.5733038837
  0
LINE
  5
3E0
330
1F
100
AcDbEntity
  8
KONTUR
100
AcDbLine
 10
824.2839174212
 20
1914.4312652411
 30
0.0
 11
824.2839174212
 21
1925.4312652411
 31
0.0
  0
ARC
  5
3E1
330
1F
100
AcDbEntity
  8
KONTUR
100
AcDbCircle
 10
818.3285108067
 20
1914.8796666239
 30
0.0
 40
1.660890949858093
100
AcDbArc
 50
317.578116098
 51
28.0304495694
  0
ARC
  5
3E2
330
1F
100
AcDbEntity
  8
KONTUR
100
AcDbCircle
 10
811.3763464208
 20
1913.7476787086
 30
0.0
 40
8.447434684620788
100
AcDbArc
 50
25.2894334994
 51
44.5375268657
  0
ARC
  5
3E3
330
1F
100
AcDbEntity
  8
KONTUR
100
AcDbCircle
 10
1119.7491379206
 20
2007.1812652411
 30
0.0
 40
436.9000000000001
100
AcDbArc
 50
180.7246152862
 51
185.7141285894
  0
ARC
  5
3E4
330
1F
100
AcDbEntity
  8
KONTUR
100
AcDbCircle
 10
684.8839174212
 20
2001.6812652411
 30
0.0
 40
1.999999999999841
100
AcDbArc
 50
90.0
 51
180.7246152862
  0
LINE
  5
3E5
330
1F
100
AcDbEntity
  8
KONTUR
100
AcDbLine
 10
684.8839174212
 20
2003.6812652411
 30
0.0
 11
685.863254306
 21
2003.6812652411
 31
0.0
  0
LINE
  5
3E6
330
1F
100
AcDbEntity
  8
KONTUR
100
AcDbLine
 10
765.9339174212
 20
1952.5312652411
 30
0.0
 11
765.9339174212
 21
1913.8312652411
 31
0.0
  0
ARC
  5
3E7
330
1F
100
AcDbEntity
  8
KONTUR
100
AcDbCircle
 10
784.2839174212
 20
1940.9312652411
 30
0.0
 40
3.0
100
AcDbArc
 50
180.0
 51
270.0
  0
ARC
  5
3E8
330
1F
100
AcDbEntity
  8
KONTUR
100
AcDbCircle
 10
837.2839174212
 20
1940.9312652411
 30
0.0
 40
3.0
100
AcDbArc
 50
180.0
 51
270.0
  0
ARC
  5
3E9
330
1F
100
AcDbEntity
  8
KONTUR
100
AcDbCircle
 10
784.2839174212
 20
1925.4312652411
 30
0.0
 40
3.0
100
AcDbArc
 50
90.0
 51
180.0
  0
LINE
  5
3EA
330
1F
100
AcDbEntity
  8
KONTUR
100
AcDbLine
 10
824.7839174212
 20
1914.4312652411
 30
0.0
 11
824.7839174212
 21
1925.4312652411
 31
0.0
  0
ARC
  5
3EB
330
1F
100
AcDbEntity
  8
KONTUR
100
AcDbCircle
 10
837.2839174212
 20
1925.4312652411
 30
0.0
 40
3.0
100
AcDbArc
 50
90.0
 51
180.0
  0
ARC
  5
3EC
330
1F
100
AcDbEntity
  8
KONTUR
100
AcDbCircle
 10
821.7839174212
 20
1940.9312652411
 30
0.0
 40
3.000000000000114
100
AcDbArc
 50
270.0
 51
0.0
  0
ARC
  5
3ED
330
1F
100
AcDbEntity
  8
KONTUR
100
AcDbCircle
 10
763.9339174212
 20
1952.5312652411
 30
0.0
 40
2.000000000000227
100
AcDbArc
 50
0.0
 51
90.0
  0
LINE
  5
3EE
330
1F
100
AcDbEntity
  8
KONTUR
100
AcDbLine
 10
720.2339174212
 20
1954.5312652411
 30
0.0
 11
763.9339174212
 21
1954.5312652411
 31
0.0
  0
ARC
  5
3EF
330
1F
100
AcDbEntity
  8
KONTUR
100
AcDbCircle
 10
720.2339174212
 20
1952.5312652411
 30
0.0
 40
2.000000000000227
100
AcDbArc
 50
90.0
 51
180.0
  0
ARC
  5
3F0
330
1F
100
AcDbEntity
  8
KONTUR
100
AcDbCircle
 10
720.2339174212
 20
1913.8312652411
 30
0.0
 40
2.0
100
AcDbArc
 50
180.0
 51
270.0
  0
LINE
  5
3F1
330
1F
100
AcDbEntity
  8
KONTUR
100
AcDbLine
 10
763.9339174212
 20
1911.8312652411
 30
0.0
 11
720.2339174212
 21
1911.8312652411
 31
0.0
  0
ARC
  5
3F2
330
1F
100
AcDbEntity
  8
KONTUR
100
AcDbCircle
 10
763.9339174212
 20
1913.8312652411
 30
0.0
 40
1.999999999999886
100
AcDbArc
 50
270.0
 51
0.0
  0
LINE
  5
3F3
330
1F
100
AcDbEntity
  8
KONTUR
100
AcDbLine
 10
784.2839174212
 20
1937.9312652411
 30
0.0
 11
795.2839174212
 21
1937.9312652411
 31
0.0
  0
ARC
  5
3F4
330
1F
100
AcDbEntity
  8
KONTUR
100
AcDbCircle
 10
795.2839174212
 20
1940.9312652411
 30
0.0
 40
3.0
100
AcDbArc
 50
270.0
 51
0.0
  0
LINE
  5
3F5
330
1F
100
AcDbEntity
  8
KONTUR
100
AcDbLine
 10
798.2839174212
 20
1940.9312652411
 30
0.0
 11
798.2839174212
 21
1951.9312652411
 31
0.0
  0
ARC
  5
3F6
330
1F
100
AcDbEntity
  8
KONTUR
100
AcDbCircle
 10
795.2839174212
 20
1951.9312652411
 30
0.0
 40
3.0
100
AcDbArc
 50
0.0
 51
90.0
  0
LINE
  5
3F7
330
1F
100
AcDbEntity
  8
KONTUR
100
AcDbLine
 10
784.2839174212
 20
1954.9312652411
 30
0.0
 11
795.2839174212
 21
1954.9312652411
 31
0.0
  0
ARC
  5
3F8
330
1F
100
AcDbEntity
  8
KONTUR
100
AcDbCircle
 10
784.2839174212
 20
1951.9312652411
 30
0.0
 40
3.0
100
AcDbArc
 50
90.0
 51
180.0
  0
LINE
  5
3F9
330
1F
100
AcDbEntity
  8
KONTUR
100
AcDbLine
 10
781.2839174212
 20
1940.9312652411
 30
0.0
 11
781.2839174212
 21
1951.9312652411
 31
0.0
  0
LINE
  5
3FA
330
1F
100
AcDbEntity
  8
KONTUR
100
AcDbLine
 10
837.2839174212
 20
1937.9312652411
 30
0.0
 11
848.2839174212
 21
1937.9312652411
 31
0.0
  0
ARC
  5
3FB
330
1F
100
AcDbEntity
  8
KONTUR
100
AcDbCircle
 10
848.2839174212
 20
1940.9312652411
 30
0.0
 40
3.000000000000114
100
AcDbArc
 50
270.0
 51
0.0
  0
LINE
  5
3FC
330
1F
100
AcDbEntity
  8
KONTUR
100
AcDbLine
 10
851.2839174212
 20
1940.9312652411
 30
0.0
 11
851.2839174212
 21
1951.9312652411
 31
0.0
  0
ARC
  5
3FD
330
1F
100
AcDbEntity
  8
KONTUR
100
AcDbCircle
 10
848.2839174212
 20
1951.9312652411
 30
0.0
 40
3.000000000000114
100
AcDbArc
 50
0.0
 51
90.0
  0
ARC
  5
3FE
330
1F
100
AcDbEntity
  8
KONTUR
100
AcDbCircle
 10
837.2839174212
 20
1951.9312652411
 30
0.0
 40
3.0
100
AcDbArc
 50
90.0
 51
180.0
  0
LINE
  5
3FF
330
1F
100
AcDbEntity
  8
KONTUR
100
AcDbLine
 10
834.2839174212
 20
1940.9312652411
 30
0.0
 11
834.2839174212
 21
1951.9312652411
 31
0.0
  0
LINE
  5
400
330
1F
100
AcDbEntity
  8
KONTUR
100
AcDbLine
 10
781.2839174212
 20
1914.4312652411
 30
0.0
 11
781.2839174212
 21
1925.4312652411
 31
0.0
  0
ARC
  5
401
330
1F
100
AcDbEntity
  8
KONTUR
100
AcDbCircle
 10
784.2839174212
 20
1914.4312652411
 30
0.0
 40
3.000000000000227
100
AcDbArc
 50
180.0
 51
270.0
  0
LINE
  5
402
330
1F
100
AcDbEntity
  8
KONTUR
100
AcDbLine
 10
784.2839174212
 20
1911.4312652411
 30
0.0
 11
795.2839174212
 21
1911.4312652411
 31
0.0
  0
LINE
  5
403
330
1F
100
AcDbEntity
  8
KONTUR
100
AcDbLine
 10
798.2839174212
 20
1914.4312652411
 30
0.0
 11
798.2839174212
 21
1925.4312652411
 31
0.0
  0
ARC
  5
404
330
1F
100
AcDbEntity
  8
KONTUR
100
AcDbCircle
 10
795.2839174212
 20
1925.4312652411
 30
0.0
 40
3.0
100
AcDbArc
 50
0.0
 51
90.0
  0
LINE
  5
405
330
1F
100
AcDbEntity
  8
KONTUR
100
AcDbLine
 10
784.2839174212
 20
1928.4312652411
 30
0.0
 11
795.2839174212
 21
1928.4312652411
 31
0.0
  0
ARC
  5
406
330
1F
100
AcDbEntity
  8
KONTUR
100
AcDbCircle
 10
821.7839174212
 20
1925.4312652411
 30
0.0
 40
3.000000000000114
100
AcDbArc
 50
0.0
 51
90.0
  0
LINE
  5
407
330
1F
100
AcDbEntity
  8
KONTUR
100
AcDbLine
 10
810.7839174212
 20
1928.4312652411
 30
0.0
 11
821.7839174212
 21
1928.4312652411
 31
0.0
  0
LINE
  5
408
330
1F
100
AcDbEntity
  8
KONTUR
100
AcDbLine
 10
807.7839174212
 20
1914.4312652411
 30
0.0
 11
807.7839174212
 21
1925.4312652411
 31
0.0
  0
ARC
  5
409
330
1F
100
AcDbEntity
  8
KONTUR
100
AcDbCircle
 10
810.7839174212
 20
1914.4312652411
 30
0.0
 40
3.000000000000227
100
AcDbArc
 50
180.0
 51
270.0
  0
LINE
  5
40A
330
1F
100
AcDbEntity
  8
KONTUR
100
AcDbLine
 10
810.7839174212
 20
1911.4312652411
 30
0.0
 11
821.7839174212
 21
1911.4312652411
 31
0.0
  0
ARC
  5
40B
330
1F
100
AcDbEntity
  8
KONTUR
100
AcDbCircle
 10
821.7839174212
 20
1914.4312652411
 30
0.0
 40
3.000000000000227
100
AcDbArc
 50
270.0
 51
0.0
  0
LINE
  5
40C
330
1F
100
AcDbEntity
  8
KONTUR
100
AcDbLine
 10
834.2839174212
 20
1914.4312652411
 30
0.0
 11
834.2839174212
 21
1925.4312652411
 31
0.0
  0
ARC
  5
40D
330
1F
100
AcDbEntity
  8
KONTUR
100
AcDbCircle
 10
837.2839174212
 20
1914.4312652411
 30
0.0
 40
3.000000000000227
100
AcDbArc
 50
180.0
 51
270.0
  0
LINE
  5
40E
330
1F
100
AcDbEntity
  8
KONTUR
100
AcDbLine
 10
837.2839174212
 20
1911.4312652411
 30
0.0
 11
848.2839174212
 21
1911.4312652411
 31
0.0
  0
ARC
  5
40F
330
1F
100
AcDbEntity
  8
KONTUR
100
AcDbCircle
 10
848.2839174212
 20
1914.4312652411
 30
0.0
 40
3.000000000000227
100
AcDbArc
 50
270.0
 51
0.0
  0
LINE
  5
410
330
1F
100
AcDbEntity
  8
KONTUR
100
AcDbLine
 10
851.2839174212
 20
1914.4312652411
 30
0.0
 11
851.2839174212
 21
1925.4312652411
 31
0.0
  0
ARC
  5
411
330
1F
100
AcDbEntity
  8
KONTUR
100
AcDbCircle
 10
848.2839174212
 20
1925.4312652411
 30
0.0
 40
3.000000000000114
100
AcDbArc
 50
0.0
 51
90.0
  0
LINE
  5
412
330
1F
100
AcDbEntity
  8
KONTUR
100
AcDbLine
 10
837.2839174212
 20
1928.4312652411
 30
0.0
 11
848.2839174212
 21
1928.4312652411
 31
0.0
  0
LINE
  5
413
330
1F
100
AcDbEntity
  8
KONTUR
100
AcDbLine
 10
824.7839174212
 20
1940.9312652411
 30
0.0
 11
824.7839174212
 21
1951.9312652411
 31
0.0
  0
ARC
  5
414
330
1F
100
AcDbEntity
  8
KONTUR
100
AcDbCircle
 10
821.7839174212
 20
1951.9312652411
 30
0.0
 40
3.000000000000114
100
AcDbArc
 50
0.0
 51
90.0
  0
LINE
  5
415
330
1F
100
AcDbEntity
  8
KONTUR
100
AcDbLine
 10
810.7839174212
 20
1954.9312652411
 30
0.0
 11
821.7839174212
 21
1954.9312652411
 31
0.0
  0
ARC
  5
416
330
1F
100
AcDbEntity
  8
KONTUR
100
AcDbCircle
 10
810.7839174212
 20
1951.9312652411
 30
0.0
 40
3.000000000000114
100
AcDbArc
 50
90.0
 51
180.0
  0
LINE
  5
417
330
1F
100
AcDbEntity
  8
KONTUR
100
AcDbLine
 10
807.7839174212
 20
1940.9312652411
 30
0.0
 11
807.7839174212
 21
1951.9312652411
 31
0.0
  0
ARC
  5
418
330
1F
100
AcDbEntity
  8
KONTUR
100
AcDbCircle
 10
810.7839174212
 20
1940.9312652411
 30
0.0
 40
3.000000000000114
100
AcDbArc
 50
180.0
 51
270.0
  0
LINE
  5
419
330
1F
100
AcDbEntity
  8
KONTUR
100
AcDbLine
 10
882.8839174212
 20
1963.6812652411
 30
0.0
 11
688.0351585315
 21
1963.6812652411
 31
0.0
  0
LINE
  5
41A
330
1F
100
AcDbEntity
  8
KONTUR
100
AcDbLine
 10
882.8839174212
 20
1963.6812652411
 30
0.0
 11
882.8839174212
 21
1895.6812652411
 31
0.0
  0
ARC
  5
41B
330
1F
100
AcDbEntity
  8
KONTUR
100
AcDbCircle
 10
880.8839174212
 20
1895.6812652411
 30
0.0
 40
2.0
100
AcDbArc
 50
270.0
 51
0.0000000001
  0
LINE
  5
41C
330
1F
100
AcDbEntity
  8
KONTUR
100
AcDbLine
 10
880.8839174212
 20
1893.6812652411
 30
0.0
 11
700.9568743818
 21
1893.6812652411
 31
0.0
  0
LINE
  5
41D
330
1F
100
AcDbEntity
  8
KONTUR
100
AcDbLine
 10
837.2839174212
 20
1954.9312652411
 30
0.0
 11
848.2839174212
 21
1954.9312652411
 31
0.0
  0
ARC
  5
41E
330
1F
100
AcDbEntity
  8
KONTUR
100
AcDbCircle
 10
795.2839174212
 20
1914.4312652411
 30
0.0
 40
3.000000000000227
100
AcDbArc
 50
270.0
 51
0.0
  0
ARC
  5
41F
330
1F
100
AcDbEntity
  8
KONTUR
100
AcDbCircle
 10
810.7839174212
 20
1925.4312652411
 30
0.0
 40
3.000000000000114
100
AcDbArc
 50
90.0
 51
180.0
  0
LINE
  5
420
330
1F
100
AcDbEntity
  8
KONTUR
100
AcDbLine
 10
810.7839174212
 20
1937.9312652411
 30
0.0
 11
821.7839174212
 21
1937.9312652411
 31
0.0
  0
LINE
  5
421
330
1F
100
AcDbEntity
  8
KONTUR
100
AcDbLine
 10
718.2339174212
 20
1913.8312652411
 30
0.0
 11
718.2339174212
 21
1952.5312652411
 31
0.0
  0
LINE
  5
422
330
1F
100
AcDbEntity
  8
KONTUR
100
AcDbLine
 10
786.3589174212
 20
1923.5062652411
 30
0.0
 11
793.2089174212
 21
1923.5062652411
 31
0.0
  0
LINE
  5
423
330
1F
100
AcDbEntity
  8
KONTUR
100
AcDbLine
 10
786.3589174212
 20
1921.6562652411
 30
0.0
 11
786.3589174212
 21
1923.5062652411
 31
0.0
  0
LINE
  5
424
330
1F
100
AcDbEntity
  8
KONTUR
100
AcDbLine
 10
784.4339174212
 20
1921.6562652411
 30
0.0
 11
786.3589174212
 21
1921.6562652411
 31
0.0
  0
LINE
  5
425
330
1F
100
AcDbEntity
  8
KONTUR
100
AcDbLine
 10
789.7839174212
 20
1916.3562652411
 30
0.0
 11
784.4339174212
 21
1921.6562652411
 31
0.0
  0
LINE
  5
426
330
1F
100
AcDbEntity
  8
KONTUR
100
AcDbLine
 10
795.1339174212
 20
1921.6562652411
 30
0.0
 11
789.7839174212
 21
1916.3562652411
 31
0.0
  0
LINE
  5
427
330
1F
100
AcDbEntity
  8
KONTUR
100
AcDbLine
 10
793.2089174212
 20
1921.6562652411
 30
0.0
 11
795.1339174212
 21
1921.6562652411
 31
0.0
  0
LINE
  5
428
330
1F
100
AcDbEntity
  8
KONTUR
100
AcDbLine
 10
784.2839174212
 20
1927.9312652411
 30
0.0
 11
795.2839174212
 21
1927.9312652411
 31
0.0
  0
ARC
  5
429
330
1F
100
AcDbEntity
  8
KONTUR
100
AcDbCircle
 10
795.2839174212
 20
1925.4312652411
 30
0.0
 40
2.5
100
AcDbArc
 50
0.0
 51
90.0
  0
LINE
  5
42A
330
1F
100
AcDbEntity
  8
KONTUR
100
AcDbLine
 10
797.7839174212
 20
1914.4312652411
 30
0.0
 11
797.7839174212
 21
1925.4312652411
 31
0.0
  0
ARC
  5
42B
330
1F
100
AcDbEntity
  8
KONTUR
100
AcDbCircle
 10
795.2839174212
 20
1914.4312652411
 30
0.0
 40
2.500000000000227
100
AcDbArc
 50
270.0
 51
0.0
  0
LINE
  5
42C
330
1F
100
AcDbEntity
  8
KONTUR
100
AcDbLine
 10
784.2839174212
 20
1911.9312652411
 30
0.0
 11
795.2839174212
 21
1911.9312652411
 31
0.0
  0
ARC
  5
42D
330
1F
100
AcDbEntity
  8
KONTUR
100
AcDbCircle
 10
784.2839174212
 20
1914.4312652411
 30
0.0
 40
2.500000000000227
100
AcDbArc
 50
180.0
 51
270.0
  0
LINE
  5
42E
330
1F
100
AcDbEntity
  8
KONTUR
100
AcDbLine
 10
781.7839174212
 20
1914.4312652411
 30
0.0
 11
781.7839174212
 21
1925.4312652411
 31
0.0
  0
ARC
  5
42F
330
1F
100
AcDbEntity
  8
KONTUR
100
AcDbCircle
 10
784.2839174212
 20
1925.4312652411
 30
0.0
 40
2.5
100
AcDbArc
 50
90.0
 51
180.0
  0
LINE
  5
430
330
1F
100
AcDbEntity
  8
KONTUR
100
AcDbLine
 10
793.2089174212
 20
1923.5062652411
 30
0.0
 11
793.2089174212
 21
1921.6562652411
 31
0.0
  0
LINE
  5
431
330
1F
100
AcDbEntity
  8
KONTUR
100
AcDbLine
 10
813.9771300065
 20
1926.2018825136
 30
0.0
 11
814.1101816315
 21
1926.1326202216
 31
0.0
  0
LINE
  5
432
330
1F
100
AcDbEntity
  8
KONTUR
100
AcDbLine
 10
810.4271300065
 20
1926.2018825136
 30
0.0
 11
812.2021300065
 21
1922.7921392382
 31
0.0
  0
LINE
  5
433
330
1F
100
AcDbEntity
  8
KONTUR
100
AcDbLine
 10
810.4271300065
 20
1926.2018825136
 30
0.0
 11
810.2940783816
 21
1926.1326202216
 31
0.0
  0
LINE
  5
434
330
1F
100
AcDbEntity
  8
KONTUR
100
AcDbLine
 10
810.2940783816
 20
1926.1326202216
 30
0.0
 11
812.1175763605
 21
1922.6297131955
 31
0.0
  0
LINE
  5
435
330
1F
100
AcDbEntity
  8
KONTUR
100
AcDbLine
 10
810.187017852
 20
1918.9211448056
 30
0.0
 11
812.1175763605
 21
1922.6297131955
 31
0.0
  0
LINE
  5
436
330
1F
100
AcDbEntity
  8
KONTUR
100
AcDbLine
 10
810.320069477
 20
1918.8518825136
 30
0.0
 11
810.187017852
 21
1918.9211448056
 31
0.0
  0
LINE
  5
437
330
1F
100
AcDbEntity
  8
KONTUR
100
AcDbLine
 10
812.2021300065
 20
1922.4672871527
 30
0.0
 11
810.320069477
 21
1918.8518825136
 31
0.0
  0
LINE
  5
438
330
1F
100
AcDbEntity
  8
KONTUR
100
AcDbLine
 10
812.2021300065
 20
1922.4672871527
 30
0.0
 11
814.0841905361
 21
1918.8518825136
 31
0.0
  0
LINE
  5
439
330
1F
100
AcDbEntity
  8
KONTUR
100
AcDbLine
 10
814.0841905361
 20
1918.8518825136
 30
0.0
 11
814.217242161
 21
1918.9211448056
 31
0.0
  0
LINE
  5
43A
330
1F
100
AcDbEntity
  8
KONTUR
100
AcDbLine
 10
812.2866836526
 20
1922.6297131955
 30
0.0
 11
814.217242161
 21
1918.9211448056
 31
0.0
  0
CIRCLE
  5
43B
330
1F
100
AcDbEntity
  8
KONTUR
100
AcDbCircle
 10
812.2021300065
 20
1917.1518825136
 30
0.0
 40
1.199999999999932
  0
LINE
  5
43C
330
1F
100
AcDbEntity
  8
KONTUR
100
AcDbLine
 10
812.7432184073
 20
1920.5615937777
 30
0.0
 11
812.7021300065
 21
1919.7518825136
 31
0.0
  0
LINE
  5
43D
330
1F
100
AcDbEntity
  8
KONTUR
100
AcDbLine
 10
811.3771300065
 20
1926.1565163329
 30
0.0
 11
811.4284802821
 21
1925.1445787595
 31
0.0
  0
LINE
  5
43E
330
1F
100
AcDbEntity
  8
KONTUR
100
AcDbLine
 10
810.7839174212
 20
1927.9312652411
 30
0.0
 11
820.2839174212
 21
1927.9312652411
 31
0.0
  0
LINE
  5
43F
330
1F
100
AcDbEntity
  8
KONTUR
100
AcDbLine
 10
812.2021300065
 20
1921.6010149246
 30
0.0
 11
812.7432184073
 21
1920.5615937777
 31
0.0
  0
LINE
  5
440
330
1F
100
AcDbEntity
  8
KONTUR
100
AcDbLine
 10
812.2021300065
 20
1921.6010149246
 30
0.0
 11
811.6610416058
 21
1920.5615937777
 31
0.0
  0
LINE
  5
441
330
1F
100
AcDbEntity
  8
KONTUR
100
AcDbLine
 10
811.6610416058
 20
1920.5615937777
 30
0.0
 11
811.7021300065
 21
1919.7518825136
 31
0.0
  0
ARC
  5
442
330
1F
100
AcDbEntity
  8
KONTUR
100
AcDbCircle
 10
812.2021300065
 20
1919.7518825136
 30
0.0
 40
0.5000000000001137
100
AcDbArc
 50
180.0000000001
 51
359.9999999999
  0
LINE
  5
443
330
1F
100
AcDbEntity
  8
KONTUR
100
AcDbLine
 10
811.4284802821
 20
1925.1445787595
 30
0.0
 11
812.2021300065
 21
1923.6584114663
 31
0.0
  0
LINE
  5
444
330
1F
100
AcDbEntity
  8
KONTUR
100
AcDbLine
 10
812.2021300065
 20
1923.6584114663
 30
0.0
 11
812.975779731
 21
1925.1445787595
 31
0.0
  0
LINE
  5
445
330
1F
100
AcDbEntity
  8
KONTUR
100
AcDbLine
 10
813.0271300065
 20
1926.1565163329
 30
0.0
 11
812.975779731
 21
1925.1445787595
 31
0.0
  0
ARC
  5
446
330
1F
100
AcDbEntity
  8
KONTUR
100
AcDbCircle
 10
812.2021300065
 20
1925.9518825136
 30
0.0
 40
0.8499999999999778
100
AcDbArc
 50
13.9305545623
 51
166.0694454377
  0
LINE
  5
447
330
1F
100
AcDbEntity
  8
KONTUR
100
AcDbLine
 10
820.2839174212
 20
1927.9312652411
 30
0.0
 11
811.7167524635
 21
1911.9312652411
 31
0.0
  0
LINE
  5
448
330
1F
100
AcDbEntity
  8
KONTUR
100
AcDbLine
 10
810.7839174212
 20
1911.9312652411
 30
0.0
 11
811.7167524635
 21
1911.9312652411
 31
0.0
  0
ARC
  5
449
330
1F
100
AcDbEntity
  8
KONTUR
100
AcDbCircle
 10
810.7839174212
 20
1914.4312652411
 30
0.0
 40
2.500000000000227
100
AcDbArc
 50
180.0
 51
270.0
  0
LINE
  5
44A
330
1F
100
AcDbEntity
  8
KONTUR
100
AcDbLine
 10
808.2839174212
 20
1914.4312652411
 30
0.0
 11
808.2839174212
 21
1925.4312652411
 31
0.0
  0
ARC
  5
44B
330
1F
100
AcDbEntity
  8
KONTUR
100
AcDbCircle
 10
810.7839174212
 20
1925.4312652411
 30
0.0
 40
2.5
100
AcDbArc
 50
90.0
 51
180.0
  0
LINE
  5
44C
330
1F
100
AcDbEntity
  8
KONTUR
100
AcDbLine
 10
814.1101816315
 20
1926.1326202216
 30
0.0
 11
812.2866836526
 21
1922.6297131955
 31
0.0
  0
LINE
  5
44D
330
1F
100
AcDbEntity
  8
KONTUR
100
AcDbLine
 10
812.2021300065
 20
1922.7921392382
 30
0.0
 11
813.9771300065
 21
1926.2018825136
 31
0.0
  0
LWPOLYLINE
  5
44E
330
1F
100
AcDbEntity
  8
KONTUR
100
AcDbPolyline
 90
        5
 70
   128
 43
0.0
 10
847.170936652
 20
1947.2004960103
 10
846.7571331333
 20
1947.1318460055
 10
846.3971319457
 20
1946.9176531449
 10
846.135987561
 20
1946.5895835927
 10
845.9377635751
 20
1945.6259767796
  0
ARC
  5
44F
330
1F
100
AcDbEntity
  8
KONTUR
100
AcDbCircle
 10
847.0870519398
 20
1945.8720404988
 30
0.0
 40
1.331101307530219
100
AcDbArc
 50
350.3458158409
 51
86.386881377
  0
LWPOLYLINE
  5
450
330
1F
100
AcDbEntity
  8
KONTUR
100
AcDbPolyline
 90
        5
 70
   128
 43
0.0
 10
847.170936652
 20
1944.0466498565
 10
847.5880087611
 20
1944.1179445427
 10
847.9477976494
 20
1944.3399986905
 10
848.2068730654
 20
1944.6745147077
 10
848.3993020366
 20
1945.648813318
  0
ARC
  5
451
330
1F
100
AcDbEntity
  8
KONTUR
100
AcDbCircle
 10
847.2545335745
 20
1945.3830319108
 30
0.0
 40
1.33899418991549
100
AcDbArc
 50
169.5464503679
 51
266.4205461426
  0
LWPOLYLINE
  5
452
330
1F
100
AcDbEntity
  8
KONTUR
100
AcDbPolyline
 90
        3
 70
   128
 43
0.0
 10
818.4377635751
 20
1946.1235729334
 10
818.3394215747
 20
1946.5465486629
 10
818.155311652
 20
1946.8327075488
  0
LINE
  5
453
330
1F
100
AcDbEntity
  8
KONTUR
100
AcDbLine
 10
815.9762251135
 20
1946.1235729334
 30
0.0
 11
818.4377635751
 21
1946.1235729334
 31
0.0
  0
LWPOLYLINE
  5
454
330
1F
100
AcDbEntity
  8
KONTUR
100
AcDbPolyline
 90
        3
 70
   128
 43
0.0
 10
818.155311652
 20
1946.8327075488
 10
817.6740572123
 20
1947.1346258649
 10
817.2298308827
 20
1947.2004960103
  0
ARC
  5
455
330
1F
100
AcDbEntity
  8
KONTUR
100
AcDbCircle
 10
817.1426648772
 20
1946.0338634174
 30
0.0
 40
1.169884404322119
100
AcDbArc
 50
85.7270336245
 51
175.6021062038
  0
LWPOLYLINE
  5
456
330
1F
100
AcDbEntity
  8
KONTUR
100
AcDbPolyline
 90
        6
 70
   128
 43
0.0
 10
812.8151674212
 20
1946.1259767796
 10
813.974339513
 20
1945.728426278
 10
814.2305351418
 20
1945.5611579223
 10
814.4337004569
 20
1945.3326154782
 10
814.5555120268
 20
1945.0523565987
 10
814.5916097289
 20
1944.7485729334
  0
LWPOLYLINE
  5
457
330
1F
100
AcDbEntity
  8
KONTUR
100
AcDbPolyline
 90
        3
 70
   128
 43
0.0
 10
812.233436652
 20
1946.2942460103
 10
812.5583217335
 20
1946.1970210417
 10
812.8151674212
 20
1946.1259767796
  0
LWPOLYLINE
  5
458
330
1F
100
AcDbEntity
  8
KONTUR
100
AcDbPolyline
 90
        3
 70
   128
 43
0.0
 10
811.9798308827
 20
1946.4697267796
 10
812.1108475613
 20
1946.3555414712
 10
812.233436652
 20
1946.2942460103
  0
LWPOLYLINE
  5
459
330
1F
100
AcDbEntity
  8
KONTUR
100
AcDbPolyline
 90
        3
 70
   128
 43
0.0
 10
811.8993020366
 20
1946.6992940872
 10
811.9251616794
 20
1946.5637467633
 10
811.9798308827
 20
1946.4697267796
  0
LWPOLYLINE
  5
45A
330
1F
100
AcDbEntity
  8
KONTUR
100
AcDbPolyline
 90
        5
 70
   128
 43
0.0
 10
812.7418501135
 20
1947.2004960103
 10
812.2058295869
 20
1947.1158545584
 10
811.9909020055
 20
1946.9512427481
 10
811.9222843852
 20
1946.8335113738
 10
811.8993020366
 20
1946.6992940872
  0
LWPOLYLINE
  5
45B
330
1F
100
AcDbEntity
  8
KONTUR
100
AcDbPolyline
 90
        4
 70
   128
 43
0.0
 10
813.5916097289
 20
1946.5851113949
 10
813.4789864512
 20
1946.8872143294
 10
813.2376704679
 20
1947.1003838523
 10
812.7418501135
 20
1947.2004960103
  0
LINE
  5
45C
330
1F
100
AcDbEntity
  8
KONTUR
100
AcDbLine
 10
814.3608404981
 20
1946.6620344719
 30
0.0
 11
813.5916097289
 21
1946.5851113949
 31
0.0
  0
ARC
  5
45D
330
1F
100
AcDbEntity
  8
KONTUR
100
AcDbCircle
 10
812.9228902485
 20
1946.4603365171
 30
0.0
 40
1.452027198597371
100
AcDbArc
 50
7.9846523145
 51
99.4150701131
  0
LWPOLYLINE
  5
45E
330
1F
100
AcDbEntity
  8
KONTUR
100
AcDbPolyline
 90
        3
 70
   128
 43
0.0
 10
811.6120424212
 20
1947.5851113949
 10
812.1906251788
 20
1947.8368045524
 10
812.6853597289
 20
1947.8928037026
  0
LWPOLYLINE
  5
45F
330
1F
100
AcDbEntity
  8
KONTUR
100
AcDbPolyline
 90
        3
 70
   128
 43
0.0
 10
811.1300712674
 20
1946.6211690872
 10
811.2873597281
 20
1947.2200026778
 10
811.6120424212
 20
1947.5851113949
  0
LWPOLYLINE
  5
460
330
1F
100
AcDbEntity
  8
KONTUR
100
AcDbPolyline
 90
        5
 70
   128
 43
0.0
 10
812.8368020366
 20
1945.2497748565
 10
811.7128832576
 20
1945.6468727986
 10
811.4702278057
 20
1945.819614932
 10
811.2831509212
 20
1946.0512575479
 10
811.1300712674
 20
1946.6211690872
  0
LWPOLYLINE
  5
461
330
1F
100
AcDbEntity
  8
KONTUR
100
AcDbPolyline
 90
        3
 70
   128
 43
0.0
 10
813.5591578058
 20
1945.0250152411
 10
813.1586613089
 20
1945.1634575216
 10
812.8368020366
 20
1945.2497748565
  0
ARC
  5
462
330
1F
100
AcDbEntity
  8
KONTUR
100
AcDbCircle
 10
813.4281835843
 20
1944.6527957538
 30
0.0
 40
0.3945904122443816
100
AcDbArc
 50
2.5640081652
 51
70.6143740728
  0
LWPOLYLINE
  5
463
330
1F
100
AcDbEntity
  8
KONTUR
100
AcDbPolyline
 90
        5
 70
   128
 43
0.0
 10
812.8824751135
 20
1944.0466498565
 10
813.2326554831
 20
1944.0781809678
 10
813.5573324629
 20
1944.208400671
 10
813.7478672938
 20
1944.4070656958
 10
813.8223789597
 20
1944.6704479334
  0
LWPOLYLINE
  5
464
330
1F
100
AcDbEntity
  8
KONTUR
100
AcDbPolyline
 90
        4
 70
   128
 43
0.0
 10
811.8223789597
 20
1944.8928037026
 10
811.9521519128
 20
1944.4932859991
 10
812.2439018911
 20
1944.1943116938
 10
812.8824751135
 20
1944.0466498565
  0
LINE
  5
465
330
1F
100
AcDbEntity
  8
KONTUR
100
AcDbLine
 10
811.0531481904
 20
1944.8158806257
 30
0.0
 11
811.8223789597
 21
1944.8928037026
 31
0.0
  0
ARC
  5
466
330
1F
100
AcDbEntity
  8
KONTUR
100
AcDbCircle
 10
812.6844414147
 20
1944.983193046
 30
0.0
 40
1.639850916901687
100
AcDbArc
 50
185.8560238298
 51
276.6401142078
  0
LWPOLYLINE
  5
467
330
1F
100
AcDbEntity
  8
KONTUR
100
AcDbPolyline
 90
        4
 70
   128
 43
0.0
 10
814.5916097289
 20
1944.7485729334
 10
814.4088852178
 20
1944.0888293099
 10
813.9192794181
 20
1943.6097068036
 10
812.874061652
 20
1943.3543421642
  0
LINE
  5
468
330
1F
100
AcDbEntity
  8
KONTUR
100
AcDbLine
 10
819.2033885751
 20
1945.4312652411
 30
0.0
 11
815.9762251135
 21
1945.4312652411
 31
0.0
  0
LWPOLYLINE
  5
469
330
1F
100
AcDbEntity
  8
KONTUR
100
AcDbPolyline
 90
        3
 70
   128
 43
0.0
 10
819.2069943443
 20
1945.6283806257
 10
819.2052630356
 20
1945.5179908941
 10
819.2033885751
 20
1945.4312652411
  0
ARC
  5
46A
330
1F
100
AcDbEntity
  8
KONTUR
100
AcDbCircle
 10
817.1931804093
 20
1945.8654798415
 30
0.0
 40
2.027723502553588
100
AcDbArc
 50
353.2851138935
 51
88.8624364507
  0
ARC
  5
46B
330
1F
100
AcDbEntity
  8
KONTUR
100
AcDbCircle
 10
817.2371642763
 20
1945.8460850137
 30
0.0
 40
2.046722083437166
100
AcDbArc
 50
90.104350885
 51
187.2916957001
  0
ARC
  5
46C
330
1F
100
AcDbEntity
  8
KONTUR
100
AcDbCircle
 10
817.2156786017
 20
1945.3734253757
 30
0.0
 40
2.019934088549634
100
AcDbArc
 50
173.9501612135
 51
271.6630973891
  0
ARC
  5
46D
330
1F
100
AcDbEntity
  8
KONTUR
100
AcDbCircle
 10
817.4477845413
 20
1945.1478766787
 30
0.0
 40
1.801905167926728
100
AcDbArc
 50
264.4751611806
 51
344.3579301812
  0
LINE
  5
46E
330
1F
100
AcDbEntity
  8
KONTUR
100
AcDbLine
 10
818.4293501135
 20
1944.7389575488
 30
0.0
 11
819.1829558827
 21
1944.6620344719
 31
0.0
  0
ARC
  5
46F
330
1F
100
AcDbEntity
  8
KONTUR
100
AcDbCircle
 10
817.3667293891
 20
1945.2036406689
 30
0.0
 40
1.159781533794227
100
AcDbArc
 50
266.024471273
 51
336.3802829149
  0
ARC
  5
470
330
1F
100
AcDbEntity
  8
KONTUR
100
AcDbCircle
 10
817.2880240941
 20
1945.3603624837
 30
0.0
 40
1.313713730829596
100
AcDbArc
 50
176.9061725656
 51
269.9257335806
  0
LINE
  5
471
330
1F
100
AcDbEntity
  8
KONTUR
100
AcDbLine
 10
808.2839174212
 20
1940.9312652411
 30
0.0
 11
808.2839174212
 21
1951.9312652411
 31
0.0
  0
ARC
  5
472
330
1F
100
AcDbEntity
  8
KONTUR
100
AcDbCircle
 10
810.7839174212
 20
1951.9312652411
 30
0.0
 40
2.5
100
AcDbArc
 50
90.0
 51
180.0
  0
LINE
  5
473
330
1F
100
AcDbEntity
  8
KONTUR
100
AcDbLine
 10
810.7839174212
 20
1954.4312652411
 30
0.0
 11
821.7839174212
 21
1954.4312652411
 31
0.0
  0
ARC
  5
474
330
1F
100
AcDbEntity
  8
KONTUR
100
AcDbCircle
 10
821.7839174212
 20
1951.9312652411
 30
0.0
 40
2.5
100
AcDbArc
 50
0.0
 51
90.0
  0
LINE
  5
475
330
1F
100
AcDbEntity
  8
KONTUR
100
AcDbLine
 10
824.2839174212
 20
1940.9312652411
 30
0.0
 11
824.2839174212
 21
1951.9312652411
 31
0.0
  0
ARC
  5
476
330
1F
100
AcDbEntity
  8
KONTUR
100
AcDbCircle
 10
821.7839174212
 20
1940.9312652411
 30
0.0
 40
2.5
100
AcDbArc
 50
270.0
 51
0.0
  0
LINE
  5
477
330
1F
100
AcDbEntity
  8
KONTUR
100
AcDbLine
 10
810.7839174212
 20
1938.4312652411
 30
0.0
 11
821.7839174212
 21
1938.4312652411
 31
0.0
  0
ARC
  5
478
330
1F
100
AcDbEntity
  8
KONTUR
100
AcDbCircle
 10
810.7839174212
 20
1940.9312652411
 30
0.0
 40
2.5
100
AcDbArc
 50
180.0
 51
270.0
  0
LINE
  5
479
330
1F
100
AcDbEntity
  8
KONTUR
100
AcDbLine
 10
820.9762251135
 20
1947.1235729334
 30
0.0
 11
820.9762251135
 21
1944.6355921642
 31
0.0
  0
LINE
  5
47A
330
1F
100
AcDbEntity
  8
KONTUR
100
AcDbLine
 10
821.6685328058
 20
1947.1235729334
 30
0.0
 11
820.9762251135
 21
1947.1235729334
 31
0.0
  0
LINE
  5
47B
330
1F
100
AcDbEntity
  8
KONTUR
100
AcDbLine
 10
821.6685328058
 20
1947.8158806257
 30
0.0
 11
821.6685328058
 21
1947.1235729334
 31
0.0
  0
LINE
  5
47C
330
1F
100
AcDbEntity
  8
KONTUR
100
AcDbLine
 10
820.9762251135
 20
1947.8158806257
 30
0.0
 11
821.6685328058
 21
1947.8158806257
 31
0.0
  0
LINE
  5
47D
330
1F
100
AcDbEntity
  8
KONTUR
100
AcDbLine
 10
820.9762251135
 20
1949.320688318
 30
0.0
 11
820.9762251135
 21
1947.8158806257
 31
0.0
  0
LINE
  5
47E
330
1F
100
AcDbEntity
  8
KONTUR
100
AcDbLine
 10
820.2069943443
 20
1948.883188318
 30
0.0
 11
820.9762251135
 21
1949.320688318
 31
0.0
  0
LINE
  5
47F
330
1F
100
AcDbEntity
  8
KONTUR
100
AcDbLine
 10
820.2069943443
 20
1947.8158806257
 30
0.0
 11
820.2069943443
 21
1948.883188318
 31
0.0
  0
LINE
  5
480
330
1F
100
AcDbEntity
  8
KONTUR
100
AcDbLine
 10
819.6685328058
 20
1947.8158806257
 30
0.0
 11
820.2069943443
 21
1947.8158806257
 31
0.0
  0
LINE
  5
481
330
1F
100
AcDbEntity
  8
KONTUR
100
AcDbLine
 10
819.6685328058
 20
1947.1235729334
 30
0.0
 11
819.6685328058
 21
1947.8158806257
 31
0.0
  0
LINE
  5
482
330
1F
100
AcDbEntity
  8
KONTUR
100
AcDbLine
 10
820.2069943443
 20
1947.1235729334
 30
0.0
 11
819.6685328058
 21
1947.1235729334
 31
0.0
  0
LINE
  5
483
330
1F
100
AcDbEntity
  8
KONTUR
100
AcDbLine
 10
820.2069943443
 20
1944.6632363949
 30
0.0
 11
820.2069943443
 21
1947.1235729334
 31
0.0
  0
LWPOLYLINE
  5
484
330
1F
100
AcDbEntity
  8
KONTUR
100
AcDbPolyline
 90
        5
 70
   128
 43
0.0
 10
821.2033885751
 20
1943.3543421642
 10
820.8428225717
 20
1943.388690473
 10
820.5134856324
 20
1943.5345224215
 10
820.2912251401
 20
1943.8161106091
 10
820.2069943443
 20
1944.6632363949
  0
LWPOLYLINE
  5
485
330
1F
100
AcDbEntity
  8
KONTUR
100
AcDbPolyline
 90
        3
 70
   128
 43
0.0
 10
821.7454558827
 20
1943.4204479334
 10
821.4434844311
 20
1943.3693254305
 10
821.2033885751
 20
1943.3543421642
  0
LINE
  5
486
330
1F
100
AcDbEntity
  8
KONTUR
100
AcDbLine
 10
821.6685328058
 20
1944.0658806257
 30
0.0
 11
821.7454558827
 21
1943.4204479334
 31
0.0
  0
LWPOLYLINE
  5
487
330
1F
100
AcDbEntity
  8
KONTUR
100
AcDbPolyline
 90
        3
 70
   128
 43
0.0
 10
821.3668501135
 20
1944.0466498565
 10
821.5360093555
 20
1944.0539992143
 10
821.6685328058
 20
1944.0658806257
  0
LWPOLYLINE
  5
488
330
1F
100
AcDbEntity
  8
KONTUR
100
AcDbPolyline
 90
        5
 70
   128
 43
0.0
 10
820.9762251135
 20
1944.6355921642
 10
821.018345165
 20
1944.2246458138
 10
821.0784232641
 20
1944.139888882
 10
821.1632479596
 20
1944.0806648644
 10
821.3668501135
 20
1944.0466498565
  0
LINE
  5
489
330
1F
100
AcDbEntity
  8
KONTUR
100
AcDbLine
 10
836.6300712674
 20
1949.4312652411
 30
0.0
 11
837.3993020366
 21
1949.4312652411
 31
0.0
  0
LINE
  5
48A
330
1F
100
AcDbEntity
  8
KONTUR
100
AcDbLine
 10
836.6300712674
 20
1948.6620344719
 30
0.0
 11
836.6300712674
 21
1949.4312652411
 31
0.0
  0
LINE
  5
48B
330
1F
100
AcDbEntity
  8
KONTUR
100
AcDbLine
 10
837.3993020366
 20
1948.6620344719
 30
0.0
 11
836.6300712674
 21
1948.6620344719
 31
0.0
  0
LINE
  5
48C
330
1F
100
AcDbEntity
  8
KONTUR
100
AcDbLine
 10
837.3993020366
 20
1949.4312652411
 30
0.0
 11
837.3993020366
 21
1948.6620344719
 31
0.0
  0
LINE
  5
48D
330
1F
100
AcDbEntity
  8
KONTUR
100
AcDbLine
 10
836.6300712674
 20
1947.8158806257
 30
0.0
 11
837.3993020366
 21
1947.8158806257
 31
0.0
  0
LINE
  5
48E
330
1F
100
AcDbEntity
  8
KONTUR
100
AcDbLine
 10
836.6300712674
 20
1943.4312652411
 30
0.0
 11
836.6300712674
 21
1947.8158806257
 31
0.0
  0
LINE
  5
48F
330
1F
100
AcDbEntity
  8
KONTUR
100
AcDbLine
 10
837.3993020366
 20
1943.4312652411
 30
0.0
 11
836.6300712674
 21
1943.4312652411
 31
0.0
  0
LINE
  5
490
330
1F
100
AcDbEntity
  8
KONTUR
100
AcDbLine
 10
837.3993020366
 20
1947.8158806257
 30
0.0
 11
837.3993020366
 21
1943.4312652411
 31
0.0
  0
LWPOLYLINE
  5
491
330
1F
100
AcDbEntity
  8
KONTUR
100
AcDbPolyline
 90
        5
 70
   128
 43
0.0
 10
840.3668501135
 20
1947.2004960103
 10
839.9869891835
 20
1947.1429617296
 10
839.6477571437
 20
1946.9634171738
 10
839.4034290475
 20
1946.6698384772
 10
839.2454558827
 20
1945.7822267796
  0
LWPOLYLINE
  5
492
330
1F
100
AcDbEntity
  8
KONTUR
100
AcDbPolyline
 90
        5
 70
   128
 43
0.0
 10
841.2454558827
 20
1946.0490537026
 10
841.2138997755
 20
1946.5140860025
 10
841.0280296685
 20
1946.9350659892
 10
840.7261710621
 20
1947.1379630492
 10
840.3668501135
 20
1947.2004960103
  0
LINE
  5
493
330
1F
100
AcDbEntity
  8
KONTUR
100
AcDbLine
 10
841.2454558827
 20
1943.4312652411
 30
0.0
 11
841.2454558827
 21
1946.0490537026
 31
0.0
  0
LINE
  5
494
330
1F
100
AcDbEntity
  8
KONTUR
100
AcDbLine
 10
842.014686652
 20
1943.4312652411
 30
0.0
 11
841.2454558827
 21
1943.4312652411
 31
0.0
  0
LINE
  5
495
330
1F
100
AcDbEntity
  8
KONTUR
100
AcDbLine
 10
842.014686652
 20
1946.1139575488
 30
0.0
 11
842.014686652
 21
1943.4312652411
 31
0.0
  0
LWPOLYLINE
  5
496
330
1F
100
AcDbEntity
  8
KONTUR
100
AcDbPolyline
 90
        3
 70
   128
 43
0.0
 10
841.9750231904
 20
1946.8327075488
 10
842.0095832091
 20
1946.4309878193
 10
842.014686652
 20
1946.1139575488
  0
ARC
  5
497
330
1F
100
AcDbEntity
  8
KONTUR
100
AcDbCircle
 10
840.7006047508
 20
1946.6034908368
 30
0.0
 40
1.294867815769995
100
AcDbArc
 50
10.1961956483
 51
95.3090934328
  0
ARC
  5
498
330
1F
100
AcDbEntity
  8
KONTUR
100
AcDbCircle
 10
840.5155348571
 20
1946.3804277963
 30
0.0
 40
1.513783152126402
100
AcDbArc
 50
87.529274886
 51
147.035709381
  0
LINE
  5
499
330
1F
100
AcDbEntity
  8
KONTUR
100
AcDbLine
 10
839.2454558827
 20
1947.8158806257
 30
0.0
 11
839.2454558827
 21
1947.2041017796
 31
0.0
  0
LINE
  5
49A
330
1F
100
AcDbEntity
  8
KONTUR
100
AcDbLine
 10
838.4762251135
 20
1947.8158806257
 30
0.0
 11
839.2454558827
 21
1947.8158806257
 31
0.0
  0
LINE
  5
49B
330
1F
100
AcDbEntity
  8
KONTUR
100
AcDbLine
 10
838.4762251135
 20
1943.4312652411
 30
0.0
 11
838.4762251135
 21
1947.8158806257
 31
0.0
  0
LINE
  5
49C
330
1F
100
AcDbEntity
  8
KONTUR
100
AcDbLine
 10
839.2454558827
 20
1943.4312652411
 30
0.0
 11
838.4762251135
 21
1943.4312652411
 31
0.0
  0
LINE
  5
49D
330
1F
100
AcDbEntity
  8
KONTUR
100
AcDbLine
 10
839.2454558827
 20
1945.7822267796
 30
0.0
 11
839.2454558827
 21
1943.4312652411
 31
0.0
  0
LINE
  5
49E
330
1F
100
AcDbEntity
  8
KONTUR
100
AcDbLine
 10
844.8139654981
 20
1947.1235729334
 30
0.0
 11
844.0447347289
 21
1947.1235729334
 31
0.0
  0
LINE
  5
49F
330
1F
100
AcDbEntity
  8
KONTUR
100
AcDbLine
 10
844.8139654981
 20
1947.8158806257
 30
0.0
 11
844.8139654981
 21
1947.1235729334
 31
0.0
  0
LINE
  5
4A0
330
1F
100
AcDbEntity
  8
KONTUR
100
AcDbLine
 10
844.0447347289
 20
1947.8158806257
 30
0.0
 11
844.8139654981
 21
1947.8158806257
 31
0.0
  0
LINE
  5
4A1
330
1F
100
AcDbEntity
  8
KONTUR
100
AcDbLine
 10
844.0447347289
 20
1948.1872748565
 30
0.0
 11
844.0447347289
 21
1947.8158806257
 31
0.0
  0
LWPOLYLINE
  5
4A2
330
1F
100
AcDbEntity
  8
KONTUR
100
AcDbPolyline
 90
        5
 70
   128
 43
0.0
 10
844.6529078058
 20
1948.8158806257
 10
844.3682908397
 20
1948.7819559097
 10
844.135054933
 20
1948.6246646313
 10
844.0614720345
 20
1948.4121990005
 10
844.0447347289
 20
1948.1872748565
  0
LWPOLYLINE
  5
4A3
330
1F
100
AcDbEntity
  8
KONTUR
100
AcDbPolyline
 90
        3
 70
   128
 43
0.0
 10
845.0831962674
 20
1948.7774190872
 10
844.8430143684
 20
1948.8078120489
 10
844.6529078058
 20
1948.8158806257
  0
LINE
  5
4A4
330
1F
100
AcDbEntity
  8
KONTUR
100
AcDbLine
 10
845.1925712674
 20
1949.4324671642
 30
0.0
 11
845.0831962674
 21
1948.7774190872
 31
0.0
  0
LWPOLYLINE
  5
4A5
330
1F
100
AcDbEntity
  8
KONTUR
100
AcDbPolyline
 90
        3
 70
   128
 43
0.0
 10
844.5110808827
 20
1949.508188318
 10
844.8945931661
 20
1949.4821530238
 10
845.1925712674
 20
1949.4324671642
  0
ARC
  5
4A6
330
1F
100
AcDbEntity
  8
KONTUR
100
AcDbCircle
 10
844.3604110112
 20
1948.4041240438
 30
0.0
 40
1.114297685404951
100
AcDbArc
 50
82.2289418144
 51
154.1944667229
  0
LWPOLYLINE
  5
4A7
330
1F
100
AcDbEntity
  8
KONTUR
100
AcDbPolyline
 90
        3
 70
   128
 43
0.0
 10
843.2755039597
 20
1948.2617940872
 10
843.2944001231
 20
1948.6171654018
 10
843.3572347289
 20
1948.8891979334
  0
LINE
  5
4A8
330
1F
100
AcDbEntity
  8
KONTUR
100
AcDbLine
 10
843.2755039597
 20
1947.8158806257
 30
0.0
 11
843.2755039597
 21
1948.2617940872
 31
0.0
  0
LINE
  5
4A9
330
1F
100
AcDbEntity
  8
KONTUR
100
AcDbLine
 10
842.6601193443
 20
1947.8158806257
 30
0.0
 11
843.2755039597
 21
1947.8158806257
 31
0.0
  0
LINE
  5
4AA
330
1F
100
AcDbEntity
  8
KONTUR
100
AcDbLine
 10
842.6601193443
 20
1947.1235729334
 30
0.0
 11
842.6601193443
 21
1947.8158806257
 31
0.0
  0
LINE
  5
4AB
330
1F
100
AcDbEntity
  8
KONTUR
100
AcDbLine
 10
843.2755039597
 20
1947.1235729334
 30
0.0
 11
842.6601193443
 21
1947.1235729334
 31
0.0
  0
LINE
  5
4AC
330
1F
100
AcDbEntity
  8
KONTUR
100
AcDbLine
 10
843.2755039597
 20
1943.4312652411
 30
0.0
 11
843.2755039597
 21
1947.1235729334
 31
0.0
  0
LINE
  5
4AD
330
1F
100
AcDbEntity
  8
KONTUR
100
AcDbLine
 10
844.0447347289
 20
1943.4312652411
 30
0.0
 11
843.2755039597
 21
1943.4312652411
 31
0.0
  0
LINE
  5
4AE
330
1F
100
AcDbEntity
  8
KONTUR
100
AcDbLine
 10
844.0447347289
 20
1947.1235729334
 30
0.0
 11
844.0447347289
 21
1943.4312652411
 31
0.0
  0
ARC
  5
4AF
330
1F
100
AcDbEntity
  8
KONTUR
100
AcDbCircle
 10
847.1708645161
 20
1945.885123533
 30
0.0
 40
2.007680170921394
100
AcDbArc
 50
354.2756147784
 51
89.9979413639
  0
LWPOLYLINE
  5
4B0
330
1F
100
AcDbEntity
  8
KONTUR
100
AcDbPolyline
 90
        3
 70
   128
 43
0.0
 10
845.8283885751
 20
1947.4108325488
 10
846.5371941108
 20
1947.8050989994
 10
847.170936652
 20
1947.8928037026
  0
LWPOLYLINE
  5
4B1
330
1F
100
AcDbEntity
  8
KONTUR
100
AcDbPolyline
 90
        3
 70
   128
 43
0.0
 10
845.1685328058
 20
1945.6235729334
 10
845.3444721015
 20
1946.7039263828
 10
845.8283885751
 20
1947.4108325488
  0
ARC
  5
4B2
330
1F
100
AcDbEntity
  8
KONTUR
100
AcDbCircle
 10
847.175849005
 20
1945.3767681335
 30
0.0
 40
2.02243193525617
100
AcDbArc
 50
172.9905137342
 51
269.860832215
  0
ARC
  5
4B3
330
1F
100
AcDbEntity
  8
KONTUR
100
AcDbCircle
 10
847.1714909346
 20
1945.3752441252
 30
0.0
 40
2.02090203704126
100
AcDbArc
 50
269.9842852072
 51
8.8131255028
  0
LINE
  5
4B4
330
1F
100
AcDbEntity
  8
KONTUR
100
AcDbLine
 10
837.2839174212
 20
1954.4312652411
 30
0.0
 11
848.2839174212
 21
1954.4312652411
 31
0.0
  0
ARC
  5
4B5
330
1F
100
AcDbEntity
  8
KONTUR
100
AcDbCircle
 10
848.2839174212
 20
1951.9312652411
 30
0.0
 40
2.5
100
AcDbArc
 50
0.0
 51
90.0
  0
LINE
  5
4B6
330
1F
100
AcDbEntity
  8
KONTUR
100
AcDbLine
 10
850.7839174212
 20
1940.9312652411
 30
0.0
 11
850.7839174212
 21
1951.9312652411
 31
0.0
  0
ARC
  5
4B7
330
1F
100
AcDbEntity
  8
KONTUR
100
AcDbCircle
 10
848.2839174212
 20
1940.9312652411
 30
0.0
 40
2.5
100
AcDbArc
 50
270.0
 51
0.0
  0
LINE
  5
4B8
330
1F
100
AcDbEntity
  8
KONTUR
100
AcDbLine
 10
837.2839174212
 20
1938.4312652411
 30
0.0
 11
848.2839174212
 21
1938.4312652411
 31
0.0
  0
ARC
  5
4B9
330
1F
100
AcDbEntity
  8
KONTUR
100
AcDbCircle
 10
837.2839174212
 20
1940.9312652411
 30
0.0
 40
2.5
100
AcDbArc
 50
180.0
 51
270.0
  0
LINE
  5
4BA
330
1F
100
AcDbEntity
  8
KONTUR
100
AcDbLine
 10
834.7839174212
 20
1940.9312652411
 30
0.0
 11
834.7839174212
 21
1951.9312652411
 31
0.0
  0
ARC
  5
4BB
330
1F
100
AcDbEntity
  8
KONTUR
100
AcDbCircle
 10
837.2839174212
 20
1951.9312652411
 30
0.0
 40
2.5
100
AcDbArc
 50
90.0
 51
180.0
  0
LINE
  5
4BC
330
1F
100
AcDbEntity
  8
KONTUR
100
AcDbLine
 10
819.2697290815
 20
1963.6812652411
 30
0.0
 11
816.2322594565
 21
1963.6812652411
 31
0.0
  0
LINE
  5
4BD
330
1F
100
AcDbEntity
  8
KONTUR
100
AcDbLine
 10
805.0150557835
 20
2003.6812652411
 30
0.0
 11
808.0525254085
 21
2003.6812652411
 31
0.0
  0
LWPOLYLINE
  5
4BE
330
1F
100
AcDbEntity
  8
KONTUR
100
AcDbPolyline
 90
        4
 70
   128
 43
0.0
 10
811.8223789597
 20
1944.8928037026
 10
811.9521519128
 20
1944.4932859991
 10
812.2439018911
 20
1944.1943116938
 10
812.8824751135
 20
1944.0466498565
  0
LWPOLYLINE
  5
4BF
330
1F
100
AcDbEntity
  8
KONTUR
100
AcDbPolyline
 90
        5
 70
   128
 43
0.0
 10
812.8824751135
 20
1944.0466498565
 10
813.2326554831
 20
1944.0781809678
 10
813.5573324629
 20
1944.208400671
 10
813.7478672938
 20
1944.4070656958
 10
813.8223789597
 20
1944.6704479334
  0
LWPOLYLINE
  5
4C0
330
1F
100
AcDbEntity
  8
KONTUR
100
AcDbPolyline
 90
        3
 70
   128
 43
0.0
 10
813.5591578058
 20
1945.0250152411
 10
813.1586613089
 20
1945.1634575216
 10
812.8368020366
 20
1945.2497748565
  0
LWPOLYLINE
  5
4C1
330
1F
100
AcDbEntity
  8
KONTUR
100
AcDbPolyline
 90
        5
 70
   128
 43
0.0
 10
812.8368020366
 20
1945.2497748565
 10
811.7128832576
 20
1945.6468727986
 10
811.4702278057
 20
1945.819614932
 10
811.2831509212
 20
1946.0512575479
 10
811.1300712674
 20
1946.6211690872
  0
LWPOLYLINE
  5
4C2
330
1F
100
AcDbEntity
  8
KONTUR
100
AcDbPolyline
 90
        3
 70
   128
 43
0.0
 10
811.1300712674
 20
1946.6211690872
 10
811.2873597281
 20
1947.2200026778
 10
811.6120424212
 20
1947.5851113949
  0
LWPOLYLINE
  5
4C3
330
1F
100
AcDbEntity
  8
KONTUR
100
AcDbPolyline
 90
        3
 70
   128
 43
0.0
 10
811.6120424212
 20
1947.5851113949
 10
812.1906251788
 20
1947.8368045524
 10
812.6853597289
 20
1947.8928037026
  0
LWPOLYLINE
  5
4C4
330
1F
100
AcDbEntity
  8
KONTUR
100
AcDbPolyline
 90
        4
 70
   128
 43
0.0
 10
813.5916097289
 20
1946.5851113949
 10
813.4789864512
 20
1946.8872143294
 10
813.2376704679
 20
1947.1003838523
 10
812.7418501135
 20
1947.2004960103
  0
LWPOLYLINE
  5
4C5
330
1F
100
AcDbEntity
  8
KONTUR
100
AcDbPolyline
 90
        5
 70
   128
 43
0.0
 10
812.7418501135
 20
1947.2004960103
 10
812.2058295869
 20
1947.1158545584
 10
811.9909020055
 20
1946.9512427481
 10
811.9222843852
 20
1946.8335113738
 10
811.8993020366
 20
1946.6992940872
  0
LWPOLYLINE
  5
4C6
330
1F
100
AcDbEntity
  8
KONTUR
100
AcDbPolyline
 90
        3
 70
   128
 43
0.0
 10
811.8993020366
 20
1946.6992940872
 10
811.9251616794
 20
1946.5637467633
 10
811.9798308827
 20
1946.4697267796
  0
LWPOLYLINE
  5
4C7
330
1F
100
AcDbEntity
  8
KONTUR
100
AcDbPolyline
 90
        3
 70
   128
 43
0.0
 10
811.9798308827
 20
1946.4697267796
 10
812.1108475613
 20
1946.3555414712
 10
812.233436652
 20
1946.2942460103
  0
LWPOLYLINE
  5
4C8
330
1F
100
AcDbEntity
  8
KONTUR
100
AcDbPolyline
 90
        3
 70
   128
 43
0.0
 10
812.233436652
 20
1946.2942460103
 10
812.5583217335
 20
1946.1970210417
 10
812.8151674212
 20
1946.1259767796
  0
LWPOLYLINE
  5
4C9
330
1F
100
AcDbEntity
  8
KONTUR
100
AcDbPolyline
 90
        6
 70
   128
 43
0.0
 10
812.8151674212
 20
1946.1259767796
 10
813.974339513
 20
1945.728426278
 10
814.2305351418
 20
1945.5611579223
 10
814.4337004569
 20
1945.3326154782
 10
814.5555120268
 20
1945.0523565987
 10
814.5916097289
 20
1944.7485729334
  0
LWPOLYLINE
  5
4CA
330
1F
100
AcDbEntity
  8
KONTUR
100
AcDbPolyline
 90
        4
 70
   128
 43
0.0
 10
814.5916097289
 20
1944.7485729334
 10
814.4088852178
 20
1944.0888293099
 10
813.9192794181
 20
1943.6097068036
 10
812.874061652
 20
1943.3543421642
  0
LWPOLYLINE
  5
4CB
330
1F
100
AcDbEntity
  8
KONTUR
100
AcDbPolyline
 90
        3
 70
   128
 43
0.0
 10
819.2069943443
 20
1945.6283806257
 10
819.2052630356
 20
1945.5179908941
 10
819.2033885751
 20
1945.4312652411
  0
LWPOLYLINE
  5
4CC
330
1F
100
AcDbEntity
  8
KONTUR
100
AcDbPolyline
 90
        3
 70
   128
 43
0.0
 10
818.4377635751
 20
1946.1235729334
 10
818.3394215747
 20
1946.5465486629
 10
818.155311652
 20
1946.8327075488
  0
LWPOLYLINE
  5
4CD
330
1F
100
AcDbEntity
  8
KONTUR
100
AcDbPolyline
 90
        3
 70
   128
 43
0.0
 10
818.155311652
 20
1946.8327075488
 10
817.6740572123
 20
1947.1346258649
 10
817.2298308827
 20
1947.2004960103
  0
LWPOLYLINE
  5
4CE
330
1F
100
AcDbEntity
  8
KONTUR
100
AcDbPolyline
 90
        3
 70
   128
 43
0.0
 10
821.7454558827
 20
1943.4204479334
 10
821.4434844311
 20
1943.3693254305
 10
821.2033885751
 20
1943.3543421642
  0
LWPOLYLINE
  5
4CF
330
1F
100
AcDbEntity
  8
KONTUR
100
AcDbPolyline
 90
        5
 70
   128
 43
0.0
 10
821.2033885751
 20
1943.3543421642
 10
820.8428225717
 20
1943.388690473
 10
820.5134856324
 20
1943.5345224215
 10
820.2912251401
 20
1943.8161106091
 10
820.2069943443
 20
1944.6632363949
  0
LWPOLYLINE
  5
4D0
330
1F
100
AcDbEntity
  8
KONTUR
100
AcDbPolyline
 90
        5
 70
   128
 43
0.0
 10
820.9762251135
 20
1944.6355921642
 10
821.018345165
 20
1944.2246458138
 10
821.0784232641
 20
1944.139888882
 10
821.1632479596
 20
1944.0806648644
 10
821.3668501135
 20
1944.0466498565
  0
LWPOLYLINE
  5
4D1
330
1F
100
AcDbEntity
  8
KONTUR
100
AcDbPolyline
 90
        3
 70
   128
 43
0.0
 10
821.3668501135
 20
1944.0466498565
 10
821.5360093555
 20
1944.0539992143
 10
821.6685328058
 20
1944.0658806257
  0
LWPOLYLINE
  5
4D2
330
1F
100
AcDbEntity
  8
KONTUR
100
AcDbPolyline
 90
        5
 70
   128
 43
0.0
 10
841.2454558827
 20
1946.0490537026
 10
841.2138997755
 20
1946.5140860025
 10
841.0280296685
 20
1946.9350659892
 10
840.7261710621
 20
1947.1379630492
 10
840.3668501135
 20
1947.2004960103
  0
LWPOLYLINE
  5
4D3
330
1F
100
AcDbEntity
  8
KONTUR
100
AcDbPolyline
 90
        5
 70
   128
 43
0.0
 10
840.3668501135
 20
1947.2004960103
 10
839.9869891835
 20
1947.1429617296
 10
839.6477571437
 20
1946.9634171738
 10
839.4034290475
 20
1946.6698384772
 10
839.2454558827
 20
1945.7822267796
  0
LWPOLYLINE
  5
4D4
330
1F
100
AcDbEntity
  8
KONTUR
100
AcDbPolyline
 90
        3
 70
   128
 43
0.0
 10
841.9750231904
 20
1946.8327075488
 10
842.0095832091
 20
1946.4309878193
 10
842.014686652
 20
1946.1139575488
  0
LWPOLYLINE
  5
4D5
330
1F
100
AcDbEntity
  8
KONTUR
100
AcDbPolyline
 90
        3
 70
   128
 43
0.0
 10
843.2755039597
 20
1948.2617940872
 10
843.2944001231
 20
1948.6171654018
 10
843.3572347289
 20
1948.8891979334
  0
LWPOLYLINE
  5
4D6
330
1F
100
AcDbEntity
  8
KONTUR
100
AcDbPolyline
 90
        3
 70
   128
 43
0.0
 10
844.5110808827
 20
1949.508188318
 10
844.8945931661
 20
1949.4821530238
 10
845.1925712674
 20
1949.4324671642
  0
LWPOLYLINE
  5
4D7
330
1F
100
AcDbEntity
  8
KONTUR
100
AcDbPolyline
 90
        3
 70
   128
 43
0.0
 10
845.0831962674
 20
1948.7774190872
 10
844.8430143684
 20
1948.8078120489
 10
844.6529078058
 20
1948.8158806257
  0
LWPOLYLINE
  5
4D8
330
1F
100
AcDbEntity
  8
KONTUR
100
AcDbPolyline
 90
        5
 70
   128
 43
0.0
 10
844.6529078058
 20
1948.8158806257
 10
844.3682908397
 20
1948.7819559097
 10
844.135054933
 20
1948.6246646313
 10
844.0614720345
 20
1948.4121990005
 10
844.0447347289
 20
1948.1872748565
  0
LWPOLYLINE
  5
4D9
330
1F
100
AcDbEntity
  8
KONTUR
100
AcDbPolyline
 90
        5
 70
   128
 43
0.0
 10
847.170936652
 20
1944.0466498565
 10
847.5880087611
 20
1944.1179445427
 10
847.9477976494
 20
1944.3399986905
 10
848.2068730654
 20
1944.6745147077
 10
848.3993020366
 20
1945.648813318
  0
LWPOLYLINE
  5
4DA
330
1F
100
AcDbEntity
  8
KONTUR
100
AcDbPolyline
 90
        5
 70
   128
 43
0.0
 10
847.170936652
 20
1947.2004960103
 10
846.7571331333
 20
1947.1318460055
 10
846.3971319457
 20
1946.9176531449
 10
846.135987561
 20
1946.5895835927
 10
845.9377635751
 20
1945.6259767796
  0
LWPOLYLINE
  5
4DB
330
1F
100
AcDbEntity
  8
KONTUR
100
AcDbPolyline
 90
        3
 70
   128
 43
0.0
 10
845.1685328058
 20
1945.6235729334
 10
845.3444721015
 20
1946.7039263828
 10
845.8283885751
 20
1947.4108325488
  0
LWPOLYLINE
  5
4DC
330
1F
100
AcDbEntity
  8
KONTUR
100
AcDbPolyline
 90
        3
 70
   128
 43
0.0
 10
845.8283885751
 20
1947.4108325488
 10
846.5371941108
 20
1947.8050989994
 10
847.170936652
 20
1947.8928037026
  0
LINE
  5
4DD
330
1F
100
AcDbEntity
  8
KONTUR
100
AcDbLine
 10
651.8339174212
 20
1859.8813947811
 30
0.0
 11
651.8339174212
 21
1863.8813947811
 31
0.0
  0
LINE
  5
4DE
330
1F
100
AcDbEntity
  8
KONTUR
100
AcDbLine
 10
665.8339174212
 20
1863.8813947811
 30
0.0
 11
665.8339174212
 21
1859.8813947811
 31
0.0
  0
LINE
  5
4DF
330
1F
100
AcDbEntity
  8
KONTUR
100
AcDbLine
 10
664.8339174212
 20
1858.8813947811
 30
0.0
 11
652.8339174212
 21
1858.8813947811
 31
0.0
  0
ARC
  5
4E0
330
1F
100
AcDbEntity
  8
KONTUR
100
AcDbCircle
 10
652.8339174212
 20
1859.8813947811
 30
0.0
 40
1.0
100
AcDbArc
 50
180.0
 51
270.0
  0
ARC
  5
4E1
330
1F
100
AcDbEntity
  8
KONTUR
100
AcDbCircle
 10
664.8339174212
 20
1859.8813947811
 30
0.0
 40
1.000000000000114
100
AcDbArc
 50
270.0
 51
0.0
  0
LINE
  5
4E2
330
1F
100
AcDbEntity
  8
KONTUR
100
AcDbLine
 10
654.8339174212
 20
1850.6813947811
 30
0.0
 11
654.8339174212
 21
1858.8813947811
 31
0.0
  0
LINE
  5
4E3
330
1F
100
AcDbEntity
  8
KONTUR
100
AcDbLine
 10
662.8339174212
 20
1850.6813947811
 30
0.0
 11
662.8339174212
 21
1858.8813947811
 31
0.0
  0
ARC
  5
4E4
330
1F
100
AcDbEntity
  8
KONTUR
100
AcDbCircle
 10
627.8339174212
 20
1859.8813947811
 30
0.0
 40
1.0
100
AcDbArc
 50
180.0
 51
270.0
  0
ARC
  5
4E5
330
1F
100
AcDbEntity
  8
KONTUR
100
AcDbCircle
 10
639.8339174212
 20
1859.8813947811
 30
0.0
 40
1.0
100
AcDbArc
 50
270.0
 51
0.0
  0
LINE
  5
4E6
330
1F
100
AcDbEntity
  8
KONTUR
100
AcDbLine
 10
640.8339174212
 20
1863.8813947811
 30
0.0
 11
640.8339174212
 21
1859.8813947811
 31
0.0
  0
LINE
  5
4E7
330
1F
100
AcDbEntity
  8
KONTUR
100
AcDbLine
 10
639.8339174212
 20
1858.8813947811
 30
0.0
 11
627.8339174212
 21
1858.8813947811
 31
0.0
  0
LINE
  5
4E8
330
1F
100
AcDbEntity
  8
KONTUR
100
AcDbLine
 10
626.8339174212
 20
1859.8813947811
 30
0.0
 11
626.8339174212
 21
1863.8813947811
 31
0.0
  0
LINE
  5
4E9
330
1F
100
AcDbEntity
  8
KONTUR
100
AcDbLine
 10
629.8339174212
 20
1849.3813947811
 30
0.0
 11
629.8339174212
 21
1858.8813947811
 31
0.0
  0
LINE
  5
4EA
330
1F
100
AcDbEntity
  8
KONTUR
100
AcDbLine
 10
637.8339174212
 20
1849.3813947811
 30
0.0
 11
637.8339174212
 21
1858.8813947811
 31
0.0
  0
LINE
  5
4EB
330
1F
100
AcDbEntity
  8
KONTUR
100
AcDbLine
 10
474.8339174212
 20
1861.8813947811
 30
0.0
 11
503.9839174212
 21
1861.8813947811
 31
0.0
  0
LINE
  5
4EC
330
1F
100
AcDbEntity
  8
KONTUR
100
AcDbLine
 10
445.6839174212
 20
1861.8813947811
 30
0.0
 11
474.8339174212
 21
1861.8813947811
 31
0.0
  0
ARC
  5
4ED
330
1F
100
AcDbEntity
  8
KONTUR
100
AcDbCircle
 10
906.8624818566
 20
1865.1457732149
 30
0.0
 40
3.568262466166082
100
AcDbArc
 50
339.2469947157
 51
358.966215986
  0
LINE
  5
4EE
330
1F
100
AcDbEntity
  8
KONTUR
100
AcDbLine
 10
910.1992234114
 20
1863.8813947811
 30
0.0
 11
237.468611431
 21
1863.8813947811
 31
0.0
  0
ARC
  5
4EF
330
1F
100
AcDbEntity
  8
KONTUR
100
AcDbCircle
 10
240.8053529858
 20
1865.1457732149
 30
0.0
 40
3.568262466171378
100
AcDbArc
 50
181.033784014
 51
200.7530052843
  0
LINE
  5
4F0
330
1F
100
AcDbEntity
  8
KONTUR
100
AcDbLine
 10
237.2376713233
 20
1865.0813947811
 30
0.0
 11
236.8309736961
 21
1865.0813947811
 31
0.0
  0
LINE
  5
4F1
330
1F
100
AcDbEntity
  8
KONTUR
100
AcDbLine
 10
236.8309736961
 20
2220.7813947811
 30
0.0
 11
237.2376713233
 21
2220.7813947811
 31
0.0
  0
LINE
  5
4F2
330
1F
100
AcDbEntity
  8
KONTUR
100
AcDbLine
 10
910.4301635191
 20
2220.7813947811
 30
0.0
 11
910.8368611464
 21
2220.7813947811
 31
0.0
  0
LINE
  5
4F3
330
1F
100
AcDbEntity
  8
KONTUR
100
AcDbLine
 10
910.8368611464
 20
1865.0813947811
 30
0.0
 11
910.4301635191
 21
1865.0813947811
 31
0.0
  0
LINE
  5
4F4
330
1F
100
AcDbEntity
  8
KONTUR
100
AcDbLine
 10
910.8368611464
 20
2220.7813947811
 30
0.0
 11
911.6853892838
 21
2220.7813947811
 31
0.0
  0
LINE
  5
4F5
330
1F
100
AcDbEntity
  8
KONTUR
100
AcDbLine
 10
911.6853892838
 20
1865.0813947811
 30
0.0
 11
910.8368611464
 21
1865.0813947811
 31
0.0
  0
ARC
  5
4F6
330
1F
100
AcDbEntity
  8
KONTUR
100
AcDbCircle
 10
240.8053529858
 20
2220.7170163472
 30
0.0
 40
3.568262466171668
100
AcDbArc
 50
159.2469947157
 51
178.966215986
  0
LINE
  5
4F7
330
1F
100
AcDbEntity
  8
KONTUR
100
AcDbLine
 10
910.1992234114
 20
2221.9813947811
 30
0.0
 11
237.468611431
 21
2221.9813947811
 31
0.0
  0
ARC
  5
4F8
330
1F
100
AcDbEntity
  8
KONTUR
100
AcDbCircle
 10
906.8624818566
 20
2220.7170163472
 30
0.0
 40
3.568262466167545
100
AcDbArc
 50
1.033784014
 51
20.7530052843
  0
LINE
  5
4F9
330
1F
100
AcDbEntity
  8
KONTUR
100
AcDbLine
 10
235.9824455586
 20
2220.7813947811
 30
0.0
 11
236.8309736961
 21
2220.7813947811
 31
0.0
  0
LINE
  5
4FA
330
1F
100
AcDbEntity
  8
KONTUR
100
AcDbLine
 10
236.8309736961
 20
1865.0813947811
 30
0.0
 11
235.9824455586
 21
1865.0813947811
 31
0.0
  0
LINE
  5
4FB
330
1F
100
AcDbEntity
  8
KONTUR
100
AcDbLine
 10
928.2485358703
 20
2220.7813947811
 30
0.0
 11
928.4824455586
 21
2220.7813947811
 31
0.0
  0
LINE
  5
4FC
330
1F
100
AcDbEntity
  8
KONTUR
100
AcDbLine
 10
928.4824455586
 20
1865.0813947811
 30
0.0
 11
928.2345877532
 21
1865.0813947811
 31
0.0
  0
LINE
  5
4FD
330
1F
100
AcDbEntity
  8
KONTUR
100
AcDbLine
 10
911.6853892838
 20
2220.7813947811
 30
0.0
 11
911.9374064894
 21
2220.7813947811
 31
0.0
  0
LINE
  5
4FE
330
1F
100
AcDbEntity
  8
KONTUR
100
AcDbLine
 10
911.9374064894
 20
1865.0813947811
 30
0.0
 11
911.6853892838
 21
1865.0813947811
 31
0.0
  0
LINE
  5
4FF
330
1F
100
AcDbEntity
  8
KONTUR
100
AcDbLine
 10
219.4332470892
 20
1865.0813947811
 30
0.0
 11
219.1853892838
 21
1865.0813947811
 31
0.0
  0
LINE
  5
500
330
1F
100
AcDbEntity
  8
KONTUR
100
AcDbLine
 10
219.1853892838
 20
2220.7813947811
 30
0.0
 11
219.4192989721
 21
2220.7813947811
 31
0.0
  0
LINE
  5
501
330
1F
100
AcDbEntity
  8
KONTUR
100
AcDbLine
 10
235.730428353
 20
2220.7813947811
 30
0.0
 11
235.9824455586
 21
2220.7813947811
 31
0.0
  0
LINE
  5
502
330
1F
100
AcDbEntity
  8
KONTUR
100
AcDbLine
 10
235.9824455586
 20
1865.0813947811
 30
0.0
 11
235.730428353
 21
1865.0813947811
 31
0.0
  0
LWPOLYLINE
  5
503
330
1F
100
AcDbEntity
  8
KONTUR
100
AcDbPolyline
 90
        5
 70
   128
 43
0.0
 10
911.9374064894
 20
2220.7813947811
 10
911.891763
 20
2221.2406148999
 10
911.7267720902
 20
2221.6299229185
 10
911.4704366194
 20
2221.8900502201
 10
911.1646658284
 20
2221.9813947811
  0
LWPOLYLINE
  5
504
330
1F
100
AcDbEntity
  8
KONTUR
100
AcDbPolyline
 90
        5
 70
   128
 43
0.0
 10
911.3717210645
 20
2220.7813947811
 10
911.3691378141
 20
2220.934468154
 10
911.3267720902
 20
2221.0642374936
 10
911.2539581793
 20
2221.1509465941
 10
911.1646658284
 20
2221.1813947811
  0
LINE
  5
505
330
1F
100
AcDbEntity
  8
KONTUR
100
AcDbLine
 10
911.1646658284
 20
2221.1813947811
 30
0.0
 11
911.1646658284
 21
2221.9813947811
 31
0.0
  0
LINE
  5
506
330
1F
100
AcDbEntity
  8
KONTUR
100
AcDbLine
 10
927.2970614046
 20
2221.9813947811
 30
0.0
 11
911.1646658284
 21
2221.9813947811
 31
0.0
  0
ARC
  5
507
330
1F
100
AcDbEntity
  8
KONTUR
100
AcDbCircle
 10
927.1106806951
 20
2220.8564045182
 30
0.0
 40
1.140324892487733
100
AcDbArc
 50
356.2284023061
 51
80.5930710837
  0
LWPOLYLINE
  5
508
330
1F
100
AcDbEntity
  8
KONTUR
100
AcDbPolyline
 90
        5
 70
   128
 43
0.0
 10
235.730428353
 20
1865.0813947811
 10
235.7760718424
 20
1864.6221746622
 10
235.9410627522
 20
1864.2328666437
 10
236.197398223
 20
1863.9727393421
 10
236.503169014
 20
1863.8813947811
  0
LINE
  5
509
330
1F
100
AcDbEntity
  8
KONTUR
100
AcDbLine
 10
236.503169014
 20
1863.8813947811
 30
0.0
 11
220.2609418089
 21
1863.8813947811
 31
0.0
  0
ARC
  5
50A
330
1F
100
AcDbEntity
  8
KONTUR
100
AcDbCircle
 10
220.4788190892
 20
1864.9171240719
 30
0.0
 40
1.058397691346908
100
AcDbArc
 50
171.0711993976
 51
258.1203999343
  0
LWPOLYLINE
  5
50B
330
1F
100
AcDbEntity
  8
KONTUR
100
AcDbPolyline
 90
        5
 70
   128
 43
0.0
 10
236.296113778
 20
1865.0813947811
 10
236.2986970284
 20
1864.9283214081
 10
236.3410627522
 20
1864.7985520686
 10
236.4138766631
 20
1864.7118429681
 10
236.503169014
 20
1864.6813947811
  0
LINE
  5
50C
330
1F
100
AcDbEntity
  8
KONTUR
100
AcDbLine
 10
236.503169014
 20
1864.6813947811
 30
0.0
 11
236.503169014
 21
1863.8813947811
 31
0.0
  0
ARC
  5
50D
330
1F
100
AcDbEntity
  8
KONTUR
100
AcDbCircle
 10
220.5571541473
 20
2220.8564045182
 30
0.0
 40
1.140324892486552
100
AcDbArc
 50
99.4069289162
 51
183.771597694
  0
LINE
  5
50E
330
1F
100
AcDbEntity
  8
KONTUR
100
AcDbLine
 10
220.3707734378
 20
2221.9813947811
 30
0.0
 11
236.503169014
 21
2221.9813947811
 31
0.0
  0
LWPOLYLINE
  5
50F
330
1F
100
AcDbEntity
  8
KONTUR
100
AcDbPolyline
 90
        5
 70
   128
 43
0.0
 10
236.503169014
 20
2221.9813947811
 10
236.197398223
 20
2221.8900502201
 10
235.9410627522
 20
2221.6299229185
 10
235.7760718424
 20
2221.2406148999
 10
235.730428353
 20
2220.7813947811
  0
ARC
  5
510
330
1F
100
AcDbEntity
  8
KONTUR
100
AcDbCircle
 10
927.1890157532
 20
1864.9171240719
 30
0.0
 40
1.058397691345512
100
AcDbArc
 50
281.8796000657
 51
8.9288006024
  0
LINE
  5
511
330
1F
100
AcDbEntity
  8
KONTUR
100
AcDbLine
 10
927.4068930335
 20
1863.8813947811
 30
0.0
 11
911.1646658284
 21
1863.8813947811
 31
0.0
  0
LWPOLYLINE
  5
512
330
1F
100
AcDbEntity
  8
KONTUR
100
AcDbPolyline
 90
        5
 70
   128
 43
0.0
 10
911.1646658284
 20
1863.8813947811
 10
911.4704366194
 20
1863.9727393421
 10
911.7267720902
 20
1864.2328666437
 10
911.891763
 20
1864.6221746622
 10
911.9374064894
 20
1865.0813947811
  0
LINE
  5
513
330
1F
100
AcDbEntity
  8
KONTUR
100
AcDbLine
 10
236.503169014
 20
2221.1813947811
 30
0.0
 11
236.503169014
 21
2221.9813947811
 31
0.0
  0
LWPOLYLINE
  5
514
330
1F
100
AcDbEntity
  8
KONTUR
100
AcDbPolyline
 90
        5
 70
   128
 43
0.0
 10
236.503169014
 20
2221.1813947811
 10
236.4138766631
 20
2221.1509465941
 10
236.3410627522
 20
2221.0642374936
 10
236.2986970284
 20
2220.934468154
 10
236.296113778
 20
2220.7813947811
  0
LINE
  5
515
330
1F
100
AcDbEntity
  8
KONTUR
100
AcDbLine
 10
911.1646658284
 20
1864.6813947811
 30
0.0
 11
911.1646658284
 21
1863.8813947811
 31
0.0
  0
LWPOLYLINE
  5
516
330
1F
100
AcDbEntity
  8
KONTUR
100
AcDbPolyline
 90
        5
 70
   128
 43
0.0
 10
911.1646658284
 20
1864.6813947811
 10
911.2539581793
 20
1864.7118429681
 10
911.3267720902
 20
1864.7985520686
 10
911.3691378141
 20
1864.9283214081
 10
911.3717210645
 20
1865.0813947811
  0
LINE
  5
517
330
1F
100
AcDbEntity
  8
KONTUR
100
AcDbLine
 10
910.1992234114
 20
2221.9813947811
 30
0.0
 11
911.1646658284
 21
2221.9813947811
 31
0.0
  0
LINE
  5
518
330
1F
100
AcDbEntity
  8
KONTUR
100
AcDbLine
 10
910.3798738871
 20
2221.1813947811
 30
0.0
 11
911.1646658284
 21
2221.1813947811
 31
0.0
  0
LINE
  5
519
330
1F
100
AcDbEntity
  8
KONTUR
100
AcDbLine
 10
237.468611431
 20
1863.8813947811
 30
0.0
 11
236.503169014
 21
1863.8813947811
 31
0.0
  0
LINE
  5
51A
330
1F
100
AcDbEntity
  8
KONTUR
100
AcDbLine
 10
237.2879609553
 20
1864.6813947811
 30
0.0
 11
236.503169014
 21
1864.6813947811
 31
0.0
  0
LINE
  5
51B
330
1F
100
AcDbEntity
  8
KONTUR
100
AcDbLine
 10
910.3798738871
 20
1864.6813947811
 30
0.0
 11
911.1646658284
 21
1864.6813947811
 31
0.0
  0
LINE
  5
51C
330
1F
100
AcDbEntity
  8
KONTUR
100
AcDbLine
 10
910.1992234114
 20
1863.8813947811
 30
0.0
 11
911.1646658284
 21
1863.8813947811
 31
0.0
  0
LINE
  5
51D
330
1F
100
AcDbEntity
  8
KONTUR
100
AcDbLine
 10
236.503169014
 20
2221.9813947811
 30
0.0
 11
237.468611431
 21
2221.9813947811
 31
0.0
  0
LINE
  5
51E
330
1F
100
AcDbEntity
  8
KONTUR
100
AcDbLine
 10
236.503169014
 20
2221.1813947811
 30
0.0
 11
237.2879609553
 21
2221.1813947811
 31
0.0
  0
LINE
  5
51F
330
1F
100
AcDbEntity
  8
KONTUR
100
AcDbLine
 10
928.8339174212
 20
1865.0813947811
 30
0.0
 11
928.8339174212
 21
2220.7813947811
 31
0.0
  0
LINE
  5
520
330
1F
100
AcDbEntity
  8
KONTUR
100
AcDbLine
 10
928.4824455586
 20
2220.7813947811
 30
0.0
 11
928.8339174212
 21
2220.7813947811
 31
0.0
  0
LINE
  5
521
330
1F
100
AcDbEntity
  8
KONTUR
100
AcDbLine
 10
928.8339174212
 20
1865.0813947811
 30
0.0
 11
928.4824455586
 21
1865.0813947811
 31
0.0
  0
LINE
  5
522
330
1F
100
AcDbEntity
  8
KONTUR
100
AcDbLine
 10
218.8339174212
 20
1865.0813947811
 30
0.0
 11
218.8339174212
 21
2220.7813947811
 31
0.0
  0
LINE
  5
523
330
1F
100
AcDbEntity
  8
KONTUR
100
AcDbLine
 10
218.8339174212
 20
2220.7813947811
 30
0.0
 11
219.1853892838
 21
2220.7813947811
 31
0.0
  0
LINE
  5
524
330
1F
100
AcDbEntity
  8
KONTUR
100
AcDbLine
 10
219.1853892838
 20
1865.0813947811
 30
0.0
 11
218.8339174212
 21
1865.0813947811
 31
0.0
  0
LINE
  5
525
330
1F
100
AcDbEntity
  8
KONTUR
100
AcDbLine
 10
927.6339174212
 20
2221.8935945457
 30
0.0
 11
927.6339174212
 21
2221.9813947811
 31
0.0
  0
ARC
  5
526
330
1F
100
AcDbEntity
  8
KONTUR
100
AcDbCircle
 10
927.6339174212
 20
2220.7813947811
 30
0.0
 40
1.200000000000273
100
AcDbArc
 50
0.0
 51
90.0
  0
LINE
  5
527
330
1F
100
AcDbEntity
  8
KONTUR
100
AcDbLine
 10
220.0339174212
 20
2221.8935945457
 30
0.0
 11
220.0339174212
 21
2221.9813947811
 31
0.0
  0
ARC
  5
528
330
1F
100
AcDbEntity
  8
KONTUR
100
AcDbCircle
 10
220.0339174212
 20
2220.7813947811
 30
0.0
 40
1.200000000000273
100
AcDbArc
 50
90.0
 51
180.0
  0
ARC
  5
529
330
1F
100
AcDbEntity
  8
KONTUR
100
AcDbCircle
 10
927.6339174212
 20
1865.0813947811
 30
0.0
 40
1.200000000000045
100
AcDbArc
 50
270.0
 51
0.0
  0
LINE
  5
52A
330
1F
100
AcDbEntity
  8
KONTUR
100
AcDbLine
 10
927.6339174212
 20
1863.9462988157
 30
0.0
 11
927.6339174212
 21
1863.8813947811
 31
0.0
  0
LINE
  5
52B
330
1F
100
AcDbEntity
  8
KONTUR
100
AcDbLine
 10
220.0339174212
 20
1863.9462988157
 30
0.0
 11
220.0339174212
 21
1863.8813947811
 31
0.0
  0
ARC
  5
52C
330
1F
100
AcDbEntity
  8
KONTUR
100
AcDbCircle
 10
220.0339174212
 20
1865.0813947811
 30
0.0
 40
1.200000000000045
100
AcDbArc
 50
180.0
 51
270.0
  0
LINE
  5
52D
330
1F
100
AcDbEntity
  8
KONTUR
100
AcDbLine
 10
927.2970614046
 20
2221.9813947811
 30
0.0
 11
927.6339174212
 21
2221.9813947811
 31
0.0
  0
LINE
  5
52E
330
1F
100
AcDbEntity
  8
KONTUR
100
AcDbLine
 10
220.0339174212
 20
2221.9813947811
 30
0.0
 11
220.3707734378
 21
2221.9813947811
 31
0.0
  0
LINE
  5
52F
330
1F
100
AcDbEntity
  8
KONTUR
100
AcDbLine
 10
927.4068930335
 20
1863.8813947811
 30
0.0
 11
927.6339174212
 21
1863.8813947811
 31
0.0
  0
LINE
  5
530
330
1F
100
AcDbEntity
  8
KONTUR
100
AcDbLine
 10
220.2609418089
 20
1863.8813947811
 30
0.0
 11
220.0339174212
 21
1863.8813947811
 31
0.0
  0
ARC
  5
531
330
1F
100
AcDbEntity
  8
KONTUR
100
AcDbCircle
 10
930.1156595505
 20
1886.2594716503
 30
0.0
 40
3.019267555527001
100
AcDbArc
 50
334.9564556518
 51
358.5181923316
  0
LINE
  5
532
330
1F
100
AcDbEntity
  8
KONTUR
100
AcDbLine
 10
933.1339174212
 20
1886.1813947811
 30
0.0
 11
934.3339174212
 21
1886.1813947811
 31
0.0
  0
LINE
  5
533
330
1F
100
AcDbEntity
  8
KONTUR
100
AcDbLine
 10
934.3339174212
 20
2220.7813947811
 30
0.0
 11
933.1339174212
 21
2220.7813947811
 31
0.0
  0
LINE
  5
534
330
1F
100
AcDbEntity
  8
KONTUR
100
AcDbLine
 10
934.3339174212
 20
1886.1813947811
 30
0.0
 11
934.3339174212
 21
2220.7813947811
 31
0.0
  0
LINE
  5
535
330
1F
100
AcDbEntity
  8
KONTUR
100
AcDbLine
 10
932.8510747087
 20
2221.9813947811
 30
0.0
 11
927.6339174212
 21
2221.9813947811
 31
0.0
  0
ARC
  5
536
330
1F
100
AcDbEntity
  8
KONTUR
100
AcDbCircle
 10
930.1156595505
 20
2220.7033179118
 30
0.0
 40
3.019267555528828
100
AcDbArc
 50
1.4818076684
 51
25.0435443482
  0
ARC
  5
537
330
1F
100
AcDbEntity
  8
KONTUR
100
AcDbCircle
 10
933.1339174212
 20
2220.7813947811
 30
0.0
 40
1.199999999999363
100
AcDbArc
 50
360.0
 51
90.0
  0
ARC
  5
538
330
1F
100
AcDbEntity
  8
KONTUR
100
AcDbCircle
 10
933.1339174212
 20
2220.7813947811
 30
0.0
 40
0.4000000000000909
100
AcDbArc
 50
0.0
 51
90.0
  0
LINE
  5
539
330
1F
100
AcDbEntity
  8
KONTUR
100
AcDbLine
 10
933.1339174212
 20
2221.9813947811
 30
0.0
 11
933.1339174212
 21
2221.1813947811
 31
0.0
  0
LINE
  5
53A
330
1F
100
AcDbEntity
  8
KONTUR
100
AcDbLine
 10
933.1339174212
 20
1884.9813947811
 30
0.0
 11
933.1339174212
 21
1885.7813947811
 31
0.0
  0
ARC
  5
53B
330
1F
100
AcDbEntity
  8
KONTUR
100
AcDbCircle
 10
933.1339174212
 20
1886.1813947811
 30
0.0
 40
1.200000000000728
100
AcDbArc
 50
270.0
 51
360.0
  0
ARC
  5
53C
330
1F
100
AcDbEntity
  8
KONTUR
100
AcDbCircle
 10
933.1339174212
 20
1886.1813947811
 30
0.0
 40
0.4000000000000909
100
AcDbArc
 50
270.0
 51
360.0
  0
LINE
  5
53D
330
1F
100
AcDbEntity
  8
KONTUR
100
AcDbLine
 10
933.1339174212
 20
2221.9813947811
 30
0.0
 11
932.8510747087
 21
2221.9813947811
 31
0.0
  0
LINE
  5
53E
330
1F
100
AcDbEntity
  8
KONTUR
100
AcDbLine
 10
213.3339174212
 20
1886.1813947811
 30
0.0
 11
214.5339174212
 21
1886.1813947811
 31
0.0
  0
LINE
  5
53F
330
1F
100
AcDbEntity
  8
KONTUR
100
AcDbLine
 10
213.3339174212
 20
1886.1813947811
 30
0.0
 11
213.3339174212
 21
2220.7813947811
 31
0.0
  0
LINE
  5
540
330
1F
100
AcDbEntity
  8
KONTUR
100
AcDbLine
 10
214.5339174212
 20
2220.7813947811
 30
0.0
 11
213.3339174212
 21
2220.7813947811
 31
0.0
  0
ARC
  5
541
330
1F
100
AcDbEntity
  8
KONTUR
100
AcDbCircle
 10
217.552175292
 20
1886.2594716503
 30
0.0
 40
3.019267555532883
100
AcDbArc
 50
181.4818076684
 51
205.0435443482
  0
ARC
  5
542
330
1F
100
AcDbEntity
  8
KONTUR
100
AcDbCircle
 10
217.552175292
 20
2220.7033179118
 30
0.0
 40
3.019267555531169
100
AcDbArc
 50
154.9564556518
 51
178.5181923316
  0
LINE
  5
543
330
1F
100
AcDbEntity
  8
KONTUR
100
AcDbLine
 10
220.0339174212
 20
2221.9813947811
 30
0.0
 11
214.8167601337
 21
2221.9813947811
 31
0.0
  0
ARC
  5
544
330
1F
100
AcDbEntity
  8
KONTUR
100
AcDbCircle
 10
214.5339174212
 20
2220.7813947811
 30
0.0
 40
1.199999999999847
100
AcDbArc
 50
90.0
 51
180.0
  0
LINE
  5
545
330
1F
100
AcDbEntity
  8
KONTUR
100
AcDbLine
 10
214.5339174212
 20
2221.9813947811
 30
0.0
 11
214.5339174212
 21
2221.1813947811
 31
0.0
  0
ARC
  5
546
330
1F
100
AcDbEntity
  8
KONTUR
100
AcDbCircle
 10
214.5339174212
 20
2220.7813947811
 30
0.0
 40
0.3999999999994657
100
AcDbArc
 50
89.9999999999
 51
180.0000000001
  0
ARC
  5
547
330
1F
100
AcDbEntity
  8
KONTUR
100
AcDbCircle
 10
214.5339174212
 20
1886.1813947811
 30
0.0
 40
0.4000000000000909
100
AcDbArc
 50
180.0
 51
270.0
  0
LINE
  5
548
330
1F
100
AcDbEntity
  8
KONTUR
100
AcDbLine
 10
214.5339174212
 20
1884.9813947811
 30
0.0
 11
214.5339174212
 21
1885.7813947811
 31
0.0
  0
ARC
  5
549
330
1F
100
AcDbEntity
  8
KONTUR
100
AcDbCircle
 10
214.5339174212
 20
1886.1813947811
 30
0.0
 40
1.199999999999903
100
AcDbArc
 50
180.0
 51
270.0
  0
LINE
  5
54A
330
1F
100
AcDbEntity
  8
KONTUR
100
AcDbLine
 10
214.8167601337
 20
2221.9813947811
 30
0.0
 11
214.5339174212
 21
2221.9813947811
 31
0.0
  0
LINE
  5
54B
330
1F
100
AcDbEntity
  8
KONTUR
100
AcDbLine
 10
892.2947642451
 20
361.5490040817
 30
0.0
 11
892.3717891831
 21
361.5490040817
 31
0.0
  0
ARC
  5
54C
330
1F
100
AcDbEntity
  8
KONTUR
100
AcDbCircle
 10
891.6241345257
 20
366.6259287638
 30
0.0
 40
5.130113025412605
100
AcDbArc
 50
278.2576854619
 51
289.9608251616
  0
ARC
  5
54D
330
1F
100
AcDbEntity
  8
KONTUR
100
AcDbCircle
 10
893.0581073522
 20
365.1290631891
 30
0.0
 40
3.34017057969568
100
AcDbArc
 50
264.548396319
 51
275.451603681
  0
ARC
  5
54E
330
1F
100
AcDbEntity
  8
KONTUR
100
AcDbCircle
 10
890.9894691679
 20
366.6259287638
 30
0.0
 40
5.130113025404452
100
AcDbArc
 50
278.2576854619
 51
289.9608251616
  0
LINE
  5
54F
330
1F
100
AcDbEntity
  8
KONTUR
100
AcDbLine
 10
891.7262835451
 20
361.5490040817
 30
0.0
 11
891.1843041541
 21
361.5490040817
 31
0.0
  0
ARC
  5
550
330
1F
100
AcDbEntity
  8
KONTUR
100
AcDbCircle
 10
891.7961610164
 20
364.816098578
 30
0.0
 40
3.323894593291554
100
AcDbArc
 50
244.9847564198
 51
259.3926000357
  0
ARC
  5
551
330
1F
100
AcDbEntity
  8
KONTUR
100
AcDbCircle
 10
889.9850042625
 20
367.2415104246
 30
0.0
 40
5.452617280055287
100
AcDbArc
 50
265.7338620799
 51
274.2661379201
  0
ARC
  5
552
330
1F
100
AcDbEntity
  8
KONTUR
100
AcDbCircle
 10
890.9849274597
 20
364.816098578
 30
0.0
 40
3.323894593294571
100
AcDbArc
 50
244.9847564198
 51
259.3926000357
  0
LINE
  5
553
330
1F
100
AcDbEntity
  8
KONTUR
100
AcDbLine
 10
890.3730705973
 20
361.5490040817
 30
0.0
 11
890.2960456593
 21
361.5490040817
 31
0.0
  0
ARC
  5
554
330
1F
100
AcDbEntity
  8
KONTUR
100
AcDbCircle
 10
891.6670558938
 20
366.5697196899
 30
0.0
 40
5.072863307600818
100
AcDbArc
 50
254.7638477879
 51
261.7775476323
  0
LINE
  5
555
330
1F
100
AcDbEntity
  8
KONTUR
100
AcDbLine
 10
890.9415512973
 20
361.5490040817
 30
0.0
 11
891.1843041541
 21
361.5490040817
 31
0.0
  0
LINE
  5
556
330
1F
100
AcDbEntity
  8
KONTUR
100
AcDbLine
 10
902.8339174212
 20
370.181394781
 30
0.0
 11
826.8339174212
 21
370.181394781
 31
0.0
  0
LINE
  5
557
330
1F
100
AcDbEntity
  8
KONTUR
100
AcDbLine
 10
902.8339174212
 20
365.181394781
 30
0.0
 11
826.8339174212
 21
365.181394781
 31
0.0
  0
LINE
  5
558
330
1F
100
AcDbEntity
  8
KONTUR
100
AcDbLine
 10
907.8339174212
 20
370.181394781
 30
0.0
 11
907.8339174212
 21
365.181394781
 31
0.0
  0
LINE
  5
559
330
1F
100
AcDbEntity
  8
KONTUR
100
AcDbLine
 10
902.8339174212
 20
370.181394781
 30
0.0
 11
907.8339174212
 21
370.181394781
 31
0.0
  0
LINE
  5
55A
330
1F
100
AcDbEntity
  8
KONTUR
100
AcDbLine
 10
907.8339174212
 20
365.181394781
 30
0.0
 11
902.8339174212
 21
365.181394781
 31
0.0
  0
LINE
  5
55B
330
1F
100
AcDbEntity
  8
KONTUR
100
AcDbLine
 10
821.8339174212
 20
365.181394781
 30
0.0
 11
821.8339174212
 21
370.181394781
 31
0.0
  0
LINE
  5
55C
330
1F
100
AcDbEntity
  8
KONTUR
100
AcDbLine
 10
821.8339174212
 20
370.181394781
 30
0.0
 11
826.8339174212
 21
370.181394781
 31
0.0
  0
LINE
  5
55D
330
1F
100
AcDbEntity
  8
KONTUR
100
AcDbLine
 10
826.8339174212
 20
365.181394781
 30
0.0
 11
821.8339174212
 21
365.181394781
 31
0.0
  0
LINE
  5
55E
330
1F
100
AcDbEntity
  8
KONTUR
100
AcDbLine
 10
907.8339174212
 20
365.181394781
 30
0.0
 11
907.8339174212
 21
360.181394781
 31
0.0
  0
LINE
  5
55F
330
1F
100
AcDbEntity
  8
KONTUR
100
AcDbLine
 10
821.8339174212
 20
365.181394781
 30
0.0
 11
821.8339174212
 21
360.181394781
 31
0.0
  0
ARC
  5
560
330
1F
100
AcDbEntity
  8
KONTUR
100
AcDbCircle
 10
826.8339174212
 20
335.681394781
 30
0.0
 40
5.0
100
AcDbArc
 50
180.0
 51
270.0
  0
LINE
  5
561
330
1F
100
AcDbEntity
  8
KONTUR
100
AcDbLine
 10
907.8339174212
 20
360.181394781
 30
0.0
 11
907.8339174212
 21
335.681394781
 31
0.0
  0
LINE
  5
562
330
1F
100
AcDbEntity
  8
KONTUR
100
AcDbLine
 10
821.8339174212
 20
360.181394781
 30
0.0
 11
821.8339174212
 21
335.681394781
 31
0.0
  0
LINE
  5
563
330
1F
100
AcDbEntity
  8
KONTUR
100
AcDbLine
 10
902.8339174212
 20
330.681394781
 30
0.0
 11
826.8339174212
 21
330.681394781
 31
0.0
  0
ARC
  5
564
330
1F
100
AcDbEntity
  8
KONTUR
100
AcDbCircle
 10
902.8339174212
 20
335.681394781
 30
0.0
 40
5.0
100
AcDbArc
 50
270.0
 51
0.0
  0
LINE
  5
565
330
1F
100
AcDbEntity
  8
KONTUR
100
AcDbLine
 10
826.8339174212
 20
1856.7813947811
 30
0.0
 11
821.8339174212
 21
1856.7813947811
 31
0.0
  0
LINE
  5
566
330
1F
100
AcDbEntity
  8
KONTUR
100
AcDbLine
 10
821.8339174212
 20
1856.7813947811
 30
0.0
 11
821.8339174212
 21
1861.7813947811
 31
0.0
  0
LINE
  5
567
330
1F
100
AcDbEntity
  8
KONTUR
100
AcDbLine
 10
821.8339174212
 20
1861.7813947811
 30
0.0
 11
826.8339174212
 21
1861.7813947811
 31
0.0
  0
LINE
  5
568
330
1F
100
AcDbEntity
  8
KONTUR
100
AcDbLine
 10
826.8339174212
 20
1856.7813947811
 30
0.0
 11
902.8339174212
 21
1856.7813947811
 31
0.0
  0
LINE
  5
569
330
1F
100
AcDbEntity
  8
KONTUR
100
AcDbLine
 10
826.8339174212
 20
1861.7813947811
 30
0.0
 11
902.8339174212
 21
1861.7813947811
 31
0.0
  0
LINE
  5
56A
330
1F
100
AcDbEntity
  8
KONTUR
100
AcDbLine
 10
907.8339174212
 20
1861.7813947811
 30
0.0
 11
907.8339174212
 21
1856.7813947811
 31
0.0
  0
LINE
  5
56B
330
1F
100
AcDbEntity
  8
KONTUR
100
AcDbLine
 10
902.8339174212
 20
1861.7813947811
 30
0.0
 11
907.8339174212
 21
1861.7813947811
 31
0.0
  0
LINE
  5
56C
330
1F
100
AcDbEntity
  8
KONTUR
100
AcDbLine
 10
907.8339174212
 20
1856.7813947811
 30
0.0
 11
902.8339174212
 21
1856.7813947811
 31
0.0
  0
LINE
  5
56D
330
1F
100
AcDbEntity
  8
KONTUR
100
AcDbLine
 10
907.8339174212
 20
1861.7813947811
 30
0.0
 11
907.8339174212
 21
1863.8813947811
 31
0.0
  0
LINE
  5
56E
330
1F
100
AcDbEntity
  8
KONTUR
100
AcDbLine
 10
821.8339174212
 20
1861.7813947811
 30
0.0
 11
821.8339174212
 21
1863.8813947811
 31
0.0
  0
LINE
  5
56F
330
1F
100
AcDbEntity
  8
KONTUR
100
AcDbLine
 10
236.6381940625
 20
378.1813947811
 30
0.0
 11
236.5839174212
 21
378.1813947811
 31
0.0
  0
LINE
  5
570
330
1F
100
AcDbEntity
  8
KONTUR
100
AcDbLine
 10
236.6381940625
 20
1104.9813947811
 30
0.0
 11
236.5839174212
 21
1104.9813947811
 31
0.0
  0
LINE
  5
571
330
1F
100
AcDbEntity
  8
KONTUR
100
AcDbLine
 10
236.6381940625
 20
1104.0813947811
 30
0.0
 11
236.6381940625
 21
1104.9813947811
 31
0.0
  0
LINE
  5
572
330
1F
100
AcDbEntity
  8
KONTUR
100
AcDbLine
 10
236.6381940625
 20
1104.0813947811
 30
0.0
 11
237.4839174212
 21
1104.0813947811
 31
0.0
  0
LINE
  5
573
330
1F
100
AcDbEntity
  8
KONTUR
100
AcDbLine
 10
237.4839174212
 20
379.0813947811
 30
0.0
 11
236.6381940625
 21
379.0813947811
 31
0.0
  0
LINE
  5
574
330
1F
100
AcDbEntity
  8
KONTUR
100
AcDbLine
 10
236.6381940625
 20
379.0813947811
 30
0.0
 11
236.6381940625
 21
378.1813947811
 31
0.0
  0
ARC
  5
575
330
1F
100
AcDbEntity
  8
KONTUR
100
AcDbCircle
 10
241.6430517789
 20
1104.0459020456
 30
0.0
 40
4.159285796764018
100
AcDbArc
 50
167.002021544
 51
179.5110678302
  0
LINE
  5
576
330
1F
100
AcDbEntity
  8
KONTUR
100
AcDbLine
 10
237.5903351985
 20
1104.9813947811
 30
0.0
 11
910.377851404
 21
1104.9813947811
 31
0.0
  0
ARC
  5
577
330
1F
100
AcDbEntity
  8
KONTUR
100
AcDbCircle
 10
907.1399352214
 20
1105.2082134327
 30
0.0
 40
3.245850875616823
100
AcDbArc
 50
339.6864998015
 51
355.99293006
  0
ARC
  5
578
330
1F
100
AcDbEntity
  8
KONTUR
100
AcDbCircle
 10
906.4944579662
 20
377.8154872684
 30
0.0
 40
3.900593916426495
100
AcDbArc
 50
5.3827256876
 51
18.937844451
  0
LINE
  5
579
330
1F
100
AcDbEntity
  8
KONTUR
100
AcDbLine
 10
237.5903351985
 20
378.1813947811
 30
0.0
 11
910.377851404
 21
378.1813947811
 31
0.0
  0
ARC
  5
57A
330
1F
100
AcDbEntity
  8
KONTUR
100
AcDbCircle
 10
241.6430517788
 20
379.1168875166
 30
0.0
 40
4.159285796741875
100
AcDbArc
 50
180.4889321698
 51
192.9979784561
  0
ARC
  5
57B
330
1F
100
AcDbEntity
  8
KONTUR
100
AcDbCircle
 10
884.6361786471
 20
1224.8274845112
 30
0.0
 40
123.4192251701383
100
AcDbArc
 50
281.9465828837
 51
282.3739872549
  0
LINE
  5
57C
330
1F
100
AcDbEntity
  8
KONTUR
100
AcDbLine
 10
911.0839174212
 20
378.8874607983
 30
0.0
 11
911.0839174212
 21
1104.2753287639
 31
0.0
  0
ARC
  5
57D
330
1F
100
AcDbEntity
  8
KONTUR
100
AcDbCircle
 10
911.3107360689
 20
382.1253769624
 30
0.0
 40
3.245850856909595
100
AcDbArc
 50
249.6864997542
 51
265.9929301073
  0
LINE
  5
57E
330
1F
100
AcDbEntity
  8
KONTUR
100
AcDbLine
 10
910.4779444818
 20
378.8852444631
 30
0.0
 11
910.4839174212
 21
378.8874607983
 31
0.0
  0
ARC
  5
57F
330
1F
100
AcDbEntity
  8
KONTUR
100
AcDbCircle
 10
909.74770948
 20
378.5867256537
 30
0.0
 40
0.6595262796767439
100
AcDbArc
 50
17.16743658
 51
48.5935850402
  0
ARC
  5
580
330
1F
100
AcDbEntity
  8
KONTUR
100
AcDbCircle
 10
909.7793791962
 20
1104.5637100173
 30
0.0
 40
0.6295070790991616
100
AcDbArc
 50
309.9879859073
 51
342.5961961547
  0
LWPOLYLINE
  5
581
330
1F
100
AcDbEntity
  8
KONTUR
100
AcDbPolyline
 90
        7
 70
   128
 43
0.0
 10
910.4839174212
 20
1104.2753287639
 10
910.478479324
 20
1104.2693304474
 10
910.4621813764
 20
1104.2581197219
 10
910.435359973
 20
1104.2416965875
 10
910.3987740743
 20
1104.2200610441
 10
910.3014043725
 20
1104.1611527305
 10
910.1839174212
 20
1104.0813947811
  0
LINE
  5
582
330
1F
100
AcDbEntity
  8
KONTUR
100
AcDbLine
 10
911.0839174212
 20
1104.2753287639
 30
0.0
 11
910.4839174212
 21
1104.2753287639
 31
0.0
  0
LINE
  5
583
330
1F
100
AcDbEntity
  8
KONTUR
100
AcDbLine
 10
237.202009635
 20
379.0813947811
 30
0.0
 11
237.202009635
 21
378.1813947811
 31
0.0
  0
LINE
  5
584
330
1F
100
AcDbEntity
  8
KONTUR
100
AcDbLine
 10
236.6381940625
 20
378.1813947811
 30
0.0
 11
237.202009635
 21
378.1813947811
 31
0.0
  0
LINE
  5
585
330
1F
100
AcDbEntity
  8
KONTUR
100
AcDbLine
 10
237.202009635
 20
1104.0813947811
 30
0.0
 11
237.202009635
 21
1104.9813947811
 31
0.0
  0
LINE
  5
586
330
1F
100
AcDbEntity
  8
KONTUR
100
AcDbLine
 10
237.202009635
 20
1104.9813947811
 30
0.0
 11
236.6381940625
 21
1104.9813947811
 31
0.0
  0
LINE
  5
587
330
1F
100
AcDbEntity
  8
KONTUR
100
AcDbLine
 10
237.202009635
 20
1104.9813947811
 30
0.0
 11
237.5903351985
 21
1104.9813947811
 31
0.0
  0
LINE
  5
588
330
1F
100
AcDbEntity
  8
KONTUR
100
AcDbLine
 10
237.202009635
 20
378.1813947811
 30
0.0
 11
237.5903351985
 21
378.1813947811
 31
0.0
  0
LINE
  5
589
330
1F
100
AcDbEntity
  8
KONTUR
100
AcDbLine
 10
237.4839174212
 20
378.7813947811
 30
0.0
 11
237.202009635
 21
378.7813947811
 31
0.0
  0
LINE
  5
58A
330
1F
100
AcDbEntity
  8
KONTUR
100
AcDbLine
 10
237.202009635
 20
1104.3813947811
 30
0.0
 11
237.4839174212
 21
1104.3813947811
 31
0.0
  0
LINE
  5
58B
330
1F
100
AcDbEntity
  8
KONTUR
100
AcDbLine
 10
910.4839174212
 20
1104.3813947811
 30
0.0
 11
910.4839174212
 21
1104.2753287639
 31
0.0
  0
LINE
  5
58C
330
1F
100
AcDbEntity
  8
KONTUR
100
AcDbLine
 10
910.4839174212
 20
378.8842082969
 30
0.0
 11
910.4839174212
 21
378.7813947811
 31
0.0
  0
LINE
  5
58D
330
1F
100
AcDbEntity
  8
KONTUR
100
AcDbLine
 10
910.4839174212
 20
378.7813947811
 30
0.0
 11
910.3532257718
 21
378.7813947811
 31
0.0
  0
LINE
  5
58E
330
1F
100
AcDbEntity
  8
KONTUR
100
AcDbLine
 10
910.3532280306
 20
1104.3813947811
 30
0.0
 11
910.4839174212
 21
1104.3813947811
 31
0.0
  0
ARC
  5
58F
330
1F
100
AcDbEntity
  8
KONTUR
100
AcDbCircle
 10
339.8339174212
 20
1203.9813947811
 30
0.0
 40
2.750000000000013
100
AcDbArc
 50
208.2114758412
 51
331.7885241588
  0
LINE
  5
590
330
1F
100
AcDbEntity
  8
KONTUR
100
AcDbLine
 10
342.2572415844
 20
1202.6813947811
 30
0.0
 11
343.6339174212
 21
1202.6813947811
 31
0.0
  0
LINE
  5
591
330
1F
100
AcDbEntity
  8
KONTUR
100
AcDbLine
 10
334.6339174212
 20
1202.6813947811
 30
0.0
 11
337.410593258
 21
1202.6813947811
 31
0.0
  0
LINE
  5
592
330
1F
100
AcDbEntity
  8
KONTUR
100
AcDbLine
 10
342.2572415844
 20
1205.2813947811
 30
0.0
 11
343.6339174212
 21
1205.2813947811
 31
0.0
  0
LINE
  5
593
330
1F
100
AcDbEntity
  8
KONTUR
100
AcDbLine
 10
343.6339174212
 20
1202.6813947811
 30
0.0
 11
343.6339174212
 21
1205.2813947811
 31
0.0
  0
ARC
  5
594
330
1F
100
AcDbEntity
  8
KONTUR
100
AcDbCircle
 10
339.8339174212
 20
1203.9813947811
 30
0.0
 40
2.75000000000012
100
AcDbArc
 50
28.2114758412
 51
151.7885241588
  0
LINE
  5
595
330
1F
100
AcDbEntity
  8
KONTUR
100
AcDbLine
 10
334.6339174212
 20
1205.2813947811
 30
0.0
 11
337.410593258
 21
1205.2813947811
 31
0.0
  0
CIRCLE
  5
596
330
1F
100
AcDbEntity
  8
KONTUR
100
AcDbCircle
 10
339.8339174212
 20
1203.9813947811
 30
0.0
 40
7.700000000000045
  0
LINE
  5
597
330
1F
100
AcDbEntity
  8
KONTUR
100
AcDbLine
 10
334.6339174212
 20
1202.6813947811
 30
0.0
 11
334.6339174212
 21
1205.2813947811
 31
0.0
  0
LINE
  5
598
330
1F
100
AcDbEntity
  8
KONTUR
100
AcDbLine
 10
342.2572415844
 20
1024.2813947811
 30
0.0
 11
343.6339174212
 21
1024.2813947811
 31
0.0
  0
LINE
  5
599
330
1F
100
AcDbEntity
  8
KONTUR
100
AcDbLine
 10
334.6339174212
 20
1021.6813947811
 30
0.0
 11
337.410593258
 21
1021.6813947811
 31
0.0
  0
ARC
  5
59A
330
1F
100
AcDbEntity
  8
KONTUR
100
AcDbCircle
 10
339.8339174212
 20
1022.9813947811
 30
0.0
 40
2.750000000000063
100
AcDbArc
 50
208.2114758412
 51
331.7885241588
  0
LINE
  5
59B
330
1F
100
AcDbEntity
  8
KONTUR
100
AcDbLine
 10
343.6339174212
 20
1021.6813947811
 30
0.0
 11
343.6339174212
 21
1024.2813947811
 31
0.0
  0
LINE
  5
59C
330
1F
100
AcDbEntity
  8
KONTUR
100
AcDbLine
 10
342.2572415844
 20
1021.6813947811
 30
0.0
 11
343.6339174212
 21
1021.6813947811
 31
0.0
  0
ARC
  5
59D
330
1F
100
AcDbEntity
  8
KONTUR
100
AcDbCircle
 10
339.8339174212
 20
1022.9813947811
 30
0.0
 40
2.750000000000016
100
AcDbArc
 50
28.2114758412
 51
151.7885241588
  0
LINE
  5
59E
330
1F
100
AcDbEntity
  8
KONTUR
100
AcDbLine
 10
334.6339174212
 20
1024.2813947811
 30
0.0
 11
337.410593258
 21
1024.2813947811
 31
0.0
  0
LINE
  5
59F
330
1F
100
AcDbEntity
  8
KONTUR
100
AcDbLine
 10
334.6339174212
 20
1021.6813947811
 30
0.0
 11
334.6339174212
 21
1024.2813947811
 31
0.0
  0
CIRCLE
  5
5A0
330
1F
100
AcDbEntity
  8
KONTUR
100
AcDbCircle
 10
339.8339174212
 20
1022.9813947811
 30
0.0
 40
7.700000000000159
  0
CIRCLE
  5
5A1
330
1F
100
AcDbEntity
  8
KONTUR
100
AcDbCircle
 10
339.8339174212
 20
1022.9813947811
 30
0.0
 40
15.0
  0
CIRCLE
  5
5A2
330
1F
100
AcDbEntity
  8
KONTUR
100
AcDbCircle
 10
339.8339174212
 20
1022.9813947811
 30
0.0
 40
11.25
  0
CIRCLE
  5
5A3
330
1F
100
AcDbEntity
  8
KONTUR
100
AcDbCircle
 10
339.8339174212
 20
1022.9813947811
 30
0.0
 40
7.999999999999886
  0
CIRCLE
  5
5A4
330
1F
100
AcDbEntity
  8
KONTUR
100
AcDbCircle
 10
339.8339174212
 20
1203.9813947811
 30
0.0
 40
15.0
  0
CIRCLE
  5
5A5
330
1F
100
AcDbEntity
  8
KONTUR
100
AcDbCircle
 10
339.8339174212
 20
1203.9813947811
 30
0.0
 40
11.25
  0
CIRCLE
  5
5A6
330
1F
100
AcDbEntity
  8
KONTUR
100
AcDbCircle
 10
339.8339174212
 20
1203.9813947811
 30
0.0
 40
8.000000000000227
  0
LINE
  5
5A7
330
1F
100
AcDbEntity
  8
KONTUR
100
AcDbLine
 10
573.8339174212
 20
377.6813947811
 30
0.0
 11
560.9839174212
 21
377.6813947811
 31
0.0
  0
LINE
  5
5A8
330
1F
100
AcDbEntity
  8
KONTUR
100
AcDbLine
 10
586.6839174212
 20
377.6813947811
 30
0.0
 11
573.8339174212
 21
377.6813947811
 31
0.0
  0
LINE
  5
5A9
330
1F
100
AcDbEntity
  8
KONTUR
100
AcDbLine
 10
560.9839174212
 20
1849.2813947811
 30
0.0
 11
586.6839174212
 21
1849.2813947811
 31
0.0
  0
LINE
  5
5AA
330
1F
100
AcDbEntity
  8
KONTUR
100
AcDbLine
 10
904.3339174212
 20
1852.7813947811
 30
0.0
 11
905.3339174212
 21
1852.7813947811
 31
0.0
  0
LINE
  5
5AB
330
1F
100
AcDbEntity
  8
KONTUR
100
AcDbLine
 10
905.3339174212
 20
1852.7813947811
 30
0.0
 11
905.3339174212
 21
1848.7813947811
 31
0.0
  0
LINE
  5
5AC
330
1F
100
AcDbEntity
  8
KONTUR
100
AcDbLine
 10
832.3339174212
 20
1852.7813947811
 30
0.0
 11
904.3339174212
 21
1852.7813947811
 31
0.0
  0
LINE
  5
5AD
330
1F
100
AcDbEntity
  8
KONTUR
100
AcDbLine
 10
831.3339174212
 20
1852.7813947811
 30
0.0
 11
831.3339174212
 21
1848.7813947811
 31
0.0
  0
LINE
  5
5AE
330
1F
100
AcDbEntity
  8
KONTUR
100
AcDbLine
 10
831.3339174212
 20
1852.7813947811
 30
0.0
 11
832.3339174212
 21
1852.7813947811
 31
0.0
  0
LINE
  5
5AF
330
1F
100
AcDbEntity
  8
KONTUR
100
AcDbLine
 10
905.3339174212
 20
374.1813947811
 30
0.0
 11
905.3339174212
 21
378.1813947811
 31
0.0
  0
LINE
  5
5B0
330
1F
100
AcDbEntity
  8
KONTUR
100
AcDbLine
 10
905.3339174212
 20
374.1813947811
 30
0.0
 11
904.3339174212
 21
374.1813947811
 31
0.0
  0
LINE
  5
5B1
330
1F
100
AcDbEntity
  8
KONTUR
100
AcDbLine
 10
904.3339174212
 20
374.1813947811
 30
0.0
 11
832.3339174212
 21
374.1813947811
 31
0.0
  0
LINE
  5
5B2
330
1F
100
AcDbEntity
  8
KONTUR
100
AcDbLine
 10
831.3339174212
 20
374.1813947811
 30
0.0
 11
831.3339174212
 21
378.1813947811
 31
0.0
  0
LINE
  5
5B3
330
1F
100
AcDbEntity
  8
KONTUR
100
AcDbLine
 10
832.3339174212
 20
374.1813947811
 30
0.0
 11
831.3339174212
 21
374.1813947811
 31
0.0
  0
LINE
  5
5B4
330
1F
100
AcDbEntity
  8
KONTUR
100
AcDbLine
 10
901.8453879366
 20
1107.4813947811
 30
0.0
 11
903.7809267257
 21
1107.4813947811
 31
0.0
  0
ARC
  5
5B5
330
1F
100
AcDbEntity
  8
KONTUR
100
AcDbCircle
 10
903.7809267257
 20
1106.4813947811
 30
0.0
 40
1.0
100
AcDbArc
 50
1.9999999996
 51
90.0
  0
ARC
  5
5B6
330
1F
100
AcDbEntity
  8
KONTUR
100
AcDbCircle
 10
878.8869081223
 20
1106.4813947811
 30
0.0
 40
1.000000000000065
100
AcDbArc
 50
90.0
 51
178.0000000004
  0
LINE
  5
5B7
330
1F
100
AcDbEntity
  8
KONTUR
100
AcDbLine
 10
878.8869081223
 20
1107.4813947811
 30
0.0
 11
880.8224469114
 21
1107.4813947811
 31
0.0
  0
LINE
  5
5B8
330
1F
100
AcDbEntity
  8
KONTUR
100
AcDbLine
 10
877.8339174212
 20
1104.9813947811
 30
0.0
 11
877.8875172953
 21
1106.5162942778
 31
0.0
  0
LINE
  5
5B9
330
1F
100
AcDbEntity
  8
KONTUR
100
AcDbLine
 10
904.7803175528
 20
1106.5162942778
 30
0.0
 11
904.8339174212
 21
1104.9813947811
 31
0.0
  0
LINE
  5
5BA
330
1F
100
AcDbEntity
  8
KONTUR
100
AcDbLine
 10
880.8224469114
 20
1107.4813947811
 30
0.0
 11
901.8453879366
 21
1107.4813947811
 31
0.0
  0
LINE
  5
5BB
330
1F
100
AcDbEntity
  8
KONTUR
100
AcDbLine
 10
903.7809267257
 20
1119.4813947811
 30
0.0
 11
901.8453879366
 21
1119.4813947811
 31
0.0
  0
ARC
  5
5BC
330
1F
100
AcDbEntity
  8
KONTUR
100
AcDbCircle
 10
903.7809267257
 20
1120.4813947811
 30
0.0
 40
1.0
100
AcDbArc
 50
270.0
 51
358.0000000004
  0
LINE
  5
5BD
330
1F
100
AcDbEntity
  8
KONTUR
100
AcDbLine
 10
880.8224469114
 20
1119.4813947811
 30
0.0
 11
878.8869081223
 21
1119.4813947811
 31
0.0
  0
ARC
  5
5BE
330
1F
100
AcDbEntity
  8
KONTUR
100
AcDbCircle
 10
878.8869081223
 20
1120.4813947811
 30
0.0
 40
1.0
100
AcDbArc
 50
181.9999999996
 51
270.0
  0
LINE
  5
5BF
330
1F
100
AcDbEntity
  8
KONTUR
100
AcDbLine
 10
904.8339174212
 20
1121.9813947811
 30
0.0
 11
904.7803175528
 21
1120.4464952844
 31
0.0
  0
LINE
  5
5C0
330
1F
100
AcDbEntity
  8
KONTUR
100
AcDbLine
 10
877.8875172953
 20
1120.4464952844
 30
0.0
 11
877.8339174212
 21
1121.9813947811
 31
0.0
  0
LINE
  5
5C1
330
1F
100
AcDbEntity
  8
KONTUR
100
AcDbLine
 10
901.8453879366
 20
1119.4813947811
 30
0.0
 11
880.8224469114
 21
1119.4813947811
 31
0.0
  0
LINE
  5
5C2
330
1F
100
AcDbEntity
  8
KONTUR
100
AcDbLine
 10
863.677281866
 20
1119.9813947811
 30
0.0
 11
860.8589174212
 21
1119.9813947811
 31
0.0
  0
LINE
  5
5C3
330
1F
100
AcDbEntity
  8
KONTUR
100
AcDbLine
 10
870.6089174212
 20
1119.9813947811
 30
0.0
 11
863.677281866
 21
1119.9813947811
 31
0.0
  0
LINE
  5
5C4
330
1F
100
AcDbEntity
  8
KONTUR
100
AcDbLine
 10
864.124247641
 20
1118.5641692781
 30
0.0
 11
865.0581017644
 21
1118.5641692781
 31
0.0
  0
LWPOLYLINE
  5
5C5
330
1F
100
AcDbEntity
  8
KONTUR
100
AcDbPolyline
 90
        3
 70
   128
 43
0.0
 10
864.451695055
 20
1118.4813947811
 10
864.3318486689
 20
1118.4922523211
 10
864.124247641
 20
1118.5641692781
  0
LINE
  5
5C6
330
1F
100
AcDbEntity
  8
KONTUR
100
AcDbLine
 10
864.451695055
 20
1118.4813947811
 30
0.0
 11
863.7339174212
 21
1118.4813947811
 31
0.0
  0
LINE
  5
5C7
330
1F
100
AcDbEntity
  8
KONTUR
100
AcDbLine
 10
867.7339174212
 20
1118.4813947811
 30
0.0
 11
867.7033436238
 21
1118.4813947811
 31
0.0
  0
LWPOLYLINE
  5
5C8
330
1F
100
AcDbEntity
  8
KONTUR
100
AcDbPolyline
 90
        3
 70
   128
 43
0.0
 10
867.7033436238
 20
1118.4813947811
 10
867.9609069584
 20
1118.4922523211
 10
868.4070648672
 20
1118.5641692781
  0
LINE
  5
5C9
330
1F
100
AcDbEntity
  8
KONTUR
100
AcDbLine
 10
867.9725346883
 20
1118.5641692781
 30
0.0
 11
868.4070648672
 21
1118.5641692781
 31
0.0
  0
LWPOLYLINE
  5
5CA
330
1F
100
AcDbEntity
  8
KONTUR
100
AcDbPolyline
 90
        3
 70
   128
 43
0.0
 10
867.2688134449
 20
1118.4813947811
 10
867.5263767796
 20
1118.4922523211
 10
867.9725346883
 20
1118.5641692781
  0
LINE
  5
5CB
330
1F
100
AcDbEntity
  8
KONTUR
100
AcDbLine
 10
867.2688134449
 20
1118.4813947811
 30
0.0
 11
865.3855491784
 21
1118.4813947811
 31
0.0
  0
LWPOLYLINE
  5
5CC
330
1F
100
AcDbEntity
  8
KONTUR
100
AcDbPolyline
 90
        3
 70
   128
 43
0.0
 10
865.3855491784
 20
1118.4813947811
 10
865.2657027922
 20
1118.4922523211
 10
865.0581017644
 20
1118.5641692781
  0
LINE
  5
5CD
330
1F
100
AcDbEntity
  8
KONTUR
100
AcDbLine
 10
864.98118017
 20
1118.4813947811
 30
0.0
 11
864.451695055
 21
1118.4813947811
 31
0.0
  0
LINE
  5
5CE
330
1F
100
AcDbEntity
  8
KONTUR
100
AcDbLine
 10
867.2688134449
 20
1118.4813947811
 30
0.0
 11
867.7033436238
 21
1118.4813947811
 31
0.0
  0
LINE
  5
5CF
330
1F
100
AcDbEntity
  8
KONTUR
100
AcDbLine
 10
864.98118017
 20
1118.4813947811
 30
0.0
 11
865.3369443357
 21
1118.4813947811
 31
0.0
  0
LINE
  5
5D0
330
1F
100
AcDbEntity
  8
KONTUR
100
AcDbLine
 10
845.0089174212
 20
1119.9813947811
 30
0.0
 11
835.2589174212
 21
1119.9813947811
 31
0.0
  0
LINE
  5
5D1
330
1F
100
AcDbEntity
  8
KONTUR
100
AcDbLine
 10
842.1339174212
 20
1118.4813947811
 30
0.0
 11
841.2058478583
 21
1118.4813947811
 31
0.0
  0
LINE
  5
5D2
330
1F
100
AcDbEntity
  8
KONTUR
100
AcDbLine
 10
841.4390878141
 20
1118.5641692781
 30
0.0
 11
841.2058478583
 21
1118.4813947811
 31
0.0
  0
LINE
  5
5D3
330
1F
100
AcDbEntity
  8
KONTUR
100
AcDbLine
 10
840.4566924616
 20
1118.5641692781
 30
0.0
 11
841.4390878141
 21
1118.5641692781
 31
0.0
  0
LINE
  5
5D4
330
1F
100
AcDbEntity
  8
KONTUR
100
AcDbLine
 10
840.4566924616
 20
1118.5641692781
 30
0.0
 11
840.2234525058
 21
1118.4813947811
 31
0.0
  0
LINE
  5
5D5
330
1F
100
AcDbEntity
  8
KONTUR
100
AcDbLine
 10
840.2234525058
 20
1118.4813947811
 30
0.0
 11
838.4454372946
 21
1118.4813947811
 31
0.0
  0
LWPOLYLINE
  5
5D6
330
1F
100
AcDbEntity
  8
KONTUR
100
AcDbPolyline
 90
        3
 70
   128
 43
0.0
 10
838.4454372946
 20
1118.4813947811
 10
838.174485958
 20
1118.4922523211
 10
837.7051370039
 20
1118.5641692781
  0
LINE
  5
5D7
330
1F
100
AcDbEntity
  8
KONTUR
100
AcDbLine
 10
837.3956222686
 20
1118.5641692781
 30
0.0
 11
837.7051370039
 21
1118.5641692781
 31
0.0
  0
LINE
  5
5D8
330
1F
100
AcDbEntity
  8
KONTUR
100
AcDbLine
 10
838.1359225592
 20
1118.4813947811
 30
0.0
 11
838.1339174212
 21
1118.4813947811
 31
0.0
  0
LINE
  5
5D9
330
1F
100
AcDbEntity
  8
KONTUR
100
AcDbLine
 10
841.2058478583
 20
1118.4813947811
 30
0.0
 11
840.8286969647
 21
1118.4813947811
 31
0.0
  0
LINE
  5
5DA
330
1F
100
AcDbEntity
  8
KONTUR
100
AcDbLine
 10
838.4454372946
 20
1118.4813947811
 30
0.0
 11
838.1359225592
 21
1118.4813947811
 31
0.0
  0
LINE
  5
5DB
330
1F
100
AcDbEntity
  8
KONTUR
100
AcDbLine
 10
840.4215332302
 20
1118.4813947811
 30
0.0
 11
840.2234525058
 21
1118.4813947811
 31
0.0
  0
LINE
  5
5DC
330
1F
100
AcDbEntity
  8
KONTUR
100
AcDbLine
 10
840.8286969647
 20
1118.4813947811
 30
0.0
 11
840.6253259945
 21
1118.4813947811
 31
0.0
  0
LINE
  5
5DD
330
1F
100
AcDbEntity
  8
KONTUR
100
AcDbLine
 10
840.6253259945
 20
1118.4813947811
 30
0.0
 11
840.4215332302
 21
1118.4813947811
 31
0.0
  0
LINE
  5
5DE
330
1F
100
AcDbEntity
  8
KONTUR
100
AcDbLine
 10
841.5058208795
 20
1106.9813947811
 30
0.0
 11
845.0089174212
 21
1106.9813947811
 31
0.0
  0
LINE
  5
5DF
330
1F
100
AcDbEntity
  8
KONTUR
100
AcDbLine
 10
835.2589174212
 20
1106.9813947811
 30
0.0
 11
841.5058208795
 21
1106.9813947811
 31
0.0
  0
LINE
  5
5E0
330
1F
100
AcDbEntity
  8
KONTUR
100
AcDbLine
 10
841.390384389
 20
1108.3986202841
 30
0.0
 11
840.402010975
 21
1108.3986202841
 31
0.0
  0
LWPOLYLINE
  5
5E1
330
1F
100
AcDbEntity
  8
KONTUR
100
AcDbPolyline
 90
        3
 70
   128
 43
0.0
 10
841.1719566571
 20
1108.4813947811
 10
841.251901629
 20
1108.470537241
 10
841.390384389
 20
1108.3986202841
  0
LINE
  5
5E2
330
1F
100
AcDbEntity
  8
KONTUR
100
AcDbLine
 10
841.1719566571
 20
1108.4813947811
 30
0.0
 11
842.1333006527
 21
1108.4813947811
 31
0.0
  0
LINE
  5
5E3
330
1F
100
AcDbEntity
  8
KONTUR
100
AcDbLine
 10
837.6795876087
 20
1108.3986202841
 30
0.0
 11
837.3897290319
 21
1108.3986202841
 31
0.0
  0
LWPOLYLINE
  5
5E4
330
1F
100
AcDbEntity
  8
KONTUR
100
AcDbPolyline
 90
        3
 70
   128
 43
0.0
 10
838.4243927666
 20
1108.4813947811
 10
838.1517926399
 20
1108.470537241
 10
837.6795876087
 20
1108.3986202841
  0
LINE
  5
5E5
330
1F
100
AcDbEntity
  8
KONTUR
100
AcDbLine
 10
838.4243927666
 20
1108.4813947811
 30
0.0
 11
840.1835832431
 21
1108.4813947811
 31
0.0
  0
LWPOLYLINE
  5
5E6
330
1F
100
AcDbEntity
  8
KONTUR
100
AcDbPolyline
 90
        3
 70
   128
 43
0.0
 10
840.1835832431
 20
1108.4813947811
 10
840.263528215
 20
1108.470537241
 10
840.402010975
 20
1108.3986202841
  0
LINE
  5
5E7
330
1F
100
AcDbEntity
  8
KONTUR
100
AcDbLine
 10
840.8187572492
 20
1108.4813947811
 30
0.0
 11
841.1719566571
 21
1108.4813947811
 31
0.0
  0
LINE
  5
5E8
330
1F
100
AcDbEntity
  8
KONTUR
100
AcDbLine
 10
838.4243927666
 20
1108.4813947811
 30
0.0
 11
838.1345341898
 21
1108.4813947811
 31
0.0
  0
LINE
  5
5E9
330
1F
100
AcDbEntity
  8
KONTUR
100
AcDbLine
 10
840.4374510072
 20
1108.4813947811
 30
0.0
 11
840.6390861158
 21
1108.4813947811
 31
0.0
  0
LINE
  5
5EA
330
1F
100
AcDbEntity
  8
KONTUR
100
AcDbLine
 10
840.8187572492
 20
1108.4813947811
 30
0.0
 11
840.6390861158
 21
1108.4813947811
 31
0.0
  0
LINE
  5
5EB
330
1F
100
AcDbEntity
  8
KONTUR
100
AcDbLine
 10
863.7345492807
 20
1108.4813947811
 30
0.0
 11
864.6953619327
 21
1108.4813947811
 31
0.0
  0
LINE
  5
5EC
330
1F
100
AcDbEntity
  8
KONTUR
100
AcDbLine
 10
864.4767092693
 20
1108.3986202841
 30
0.0
 11
864.6953619327
 21
1108.4813947811
 31
0.0
  0
LINE
  5
5ED
330
1F
100
AcDbEntity
  8
KONTUR
100
AcDbLine
 10
865.4649950969
 20
1108.3986202841
 30
0.0
 11
864.4767092693
 21
1108.3986202841
 31
0.0
  0
LINE
  5
5EE
330
1F
100
AcDbEntity
  8
KONTUR
100
AcDbLine
 10
865.4649950969
 20
1108.3986202841
 30
0.0
 11
865.6836477603
 21
1108.4813947811
 31
0.0
  0
LINE
  5
5EF
330
1F
100
AcDbEntity
  8
KONTUR
100
AcDbLine
 10
865.6836477603
 20
1108.4813947811
 30
0.0
 11
867.4431284957
 21
1108.4813947811
 31
0.0
  0
LWPOLYLINE
  5
5F0
330
1F
100
AcDbEntity
  8
KONTUR
100
AcDbPolyline
 90
        3
 70
   128
 43
0.0
 10
867.4431284957
 20
1108.4813947811
 10
867.7157044655
 20
1108.470537241
 10
868.1878676515
 20
1108.3986202841
  0
LINE
  5
5F1
330
1F
100
AcDbEntity
  8
KONTUR
100
AcDbLine
 10
868.4780247175
 20
1108.3986202841
 30
0.0
 11
868.1878676515
 21
1108.3986202841
 31
0.0
  0
LINE
  5
5F2
330
1F
100
AcDbEntity
  8
KONTUR
100
AcDbLine
 10
860.8589174212
 20
1106.9813947811
 30
0.0
 11
870.6089174212
 21
1106.9813947811
 31
0.0
  0
LINE
  5
5F3
330
1F
100
AcDbEntity
  8
KONTUR
100
AcDbLine
 10
864.6953619327
 20
1108.4813947811
 30
0.0
 11
865.0489250565
 21
1108.4813947811
 31
0.0
  0
LINE
  5
5F4
330
1F
100
AcDbEntity
  8
KONTUR
100
AcDbLine
 10
867.4431284957
 20
1108.4813947811
 30
0.0
 11
867.7332855617
 21
1108.4813947811
 31
0.0
  0
LINE
  5
5F5
330
1F
100
AcDbEntity
  8
KONTUR
100
AcDbLine
 10
865.0489250565
 20
1108.4813947811
 30
0.0
 11
865.2289555808
 21
1108.4813947811
 31
0.0
  0
LINE
  5
5F6
330
1F
100
AcDbEntity
  8
KONTUR
100
AcDbLine
 10
865.2289555808
 20
1108.4813947811
 30
0.0
 11
865.4306239583
 21
1108.4813947811
 31
0.0
  0
LINE
  5
5F7
330
1F
100
AcDbEntity
  8
KONTUR
100
AcDbLine
 10
236.6381940625
 20
1121.9813947811
 30
0.0
 11
236.5839174212
 21
1121.9813947811
 31
0.0
  0
LINE
  5
5F8
330
1F
100
AcDbEntity
  8
KONTUR
100
AcDbLine
 10
236.6381940625
 20
1848.7813947811
 30
0.0
 11
236.5839174212
 21
1848.7813947811
 31
0.0
  0
LINE
  5
5F9
330
1F
100
AcDbEntity
  8
KONTUR
100
AcDbLine
 10
236.6381940625
 20
1847.8813947811
 30
0.0
 11
236.6381940625
 21
1848.7813947811
 31
0.0
  0
LINE
  5
5FA
330
1F
100
AcDbEntity
  8
KONTUR
100
AcDbLine
 10
236.6381940625
 20
1847.8813947811
 30
0.0
 11
237.4839174212
 21
1847.8813947811
 31
0.0
  0
LINE
  5
5FB
330
1F
100
AcDbEntity
  8
KONTUR
100
AcDbLine
 10
237.4839174212
 20
1122.8813947811
 30
0.0
 11
236.6381940625
 21
1122.8813947811
 31
0.0
  0
LINE
  5
5FC
330
1F
100
AcDbEntity
  8
KONTUR
100
AcDbLine
 10
236.6381940625
 20
1122.8813947811
 30
0.0
 11
236.6381940625
 21
1121.9813947811
 31
0.0
  0
LINE
  5
5FD
330
1F
100
AcDbEntity
  8
KONTUR
100
AcDbLine
 10
237.5903351985
 20
1848.7813947811
 30
0.0
 11
910.377851404
 21
1848.7813947811
 31
0.0
  0
ARC
  5
5FE
330
1F
100
AcDbEntity
  8
KONTUR
100
AcDbCircle
 10
907.1399352214
 20
1849.0082134328
 30
0.0
 40
3.245850875597233
100
AcDbArc
 50
339.6864998014
 51
355.99293006
  0
ARC
  5
5FF
330
1F
100
AcDbEntity
  8
KONTUR
100
AcDbCircle
 10
241.6430517789
 20
1847.8459020456
 30
0.0
 40
4.159285796766917
100
AcDbArc
 50
167.002021544
 51
179.5110678302
  0
ARC
  5
600
330
1F
100
AcDbEntity
  8
KONTUR
100
AcDbCircle
 10
906.4944579662
 20
1121.6154872684
 30
0.0
 40
3.900593916402123
100
AcDbArc
 50
5.3827256875
 51
18.9378444511
  0
LINE
  5
601
330
1F
100
AcDbEntity
  8
KONTUR
100
AcDbLine
 10
237.5903351985
 20
1121.9813947811
 30
0.0
 11
910.377851404
 21
1121.9813947811
 31
0.0
  0
ARC
  5
602
330
1F
100
AcDbEntity
  8
KONTUR
100
AcDbCircle
 10
241.6430517788
 20
1122.9168875166
 30
0.0
 40
4.159285796755535
100
AcDbArc
 50
180.4889321698
 51
192.9979784561
  0
ARC
  5
603
330
1F
100
AcDbEntity
  8
KONTUR
100
AcDbCircle
 10
884.6361785983
 20
1968.6274847376
 30
0.0
 40
123.4192254017119
100
AcDbArc
 50
281.9465828841
 51
282.3739872545
  0
LINE
  5
604
330
1F
100
AcDbEntity
  8
KONTUR
100
AcDbLine
 10
911.0839174212
 20
1122.6874607983
 30
0.0
 11
911.0839174212
 21
1848.0753287639
 31
0.0
  0
ARC
  5
605
330
1F
100
AcDbEntity
  8
KONTUR
100
AcDbCircle
 10
911.3107360689
 20
1125.9253769625
 30
0.0
 40
3.245850856936941
100
AcDbArc
 50
249.6864997543
 51
265.9929301072
  0
LINE
  5
606
330
1F
100
AcDbEntity
  8
KONTUR
100
AcDbLine
 10
910.4779444818
 20
1122.6852444631
 30
0.0
 11
910.4839174212
 21
1122.6874607983
 31
0.0
  0
ARC
  5
607
330
1F
100
AcDbEntity
  8
KONTUR
100
AcDbCircle
 10
909.74770948
 20
1122.3867256537
 30
0.0
 40
0.6595262796699023
100
AcDbArc
 50
17.1674365799
 51
48.5935850404
  0
LWPOLYLINE
  5
608
330
1F
100
AcDbEntity
  8
KONTUR
100
AcDbPolyline
 90
        7
 70
   128
 43
0.0
 10
910.4839174212
 20
1848.0753287639
 10
910.478479324
 20
1848.0693304474
 10
910.4621813764
 20
1848.0581197219
 10
910.435359973
 20
1848.0416965875
 10
910.3987740743
 20
1848.0200610441
 10
910.3014043725
 20
1847.9611527305
 10
910.1839174212
 20
1847.8813947811
  0
LINE
  5
609
330
1F
100
AcDbEntity
  8
KONTUR
100
AcDbLine
 10
911.0839174212
 20
1848.0753287639
 30
0.0
 11
910.4839174212
 21
1848.0753287639
 31
0.0
  0
ARC
  5
60A
330
1F
100
AcDbEntity
  8
KONTUR
100
AcDbCircle
 10
909.7793791962
 20
1848.3637100173
 30
0.0
 40
0.6295070790984725
100
AcDbArc
 50
309.9879859073
 51
342.5961961546
  0
LINE
  5
60B
330
1F
100
AcDbEntity
  8
KONTUR
100
AcDbLine
 10
237.202009635
 20
1122.8813947811
 30
0.0
 11
237.202009635
 21
1121.9813947811
 31
0.0
  0
LINE
  5
60C
330
1F
100
AcDbEntity
  8
KONTUR
100
AcDbLine
 10
236.6381940625
 20
1121.9813947811
 30
0.0
 11
237.202009635
 21
1121.9813947811
 31
0.0
  0
LINE
  5
60D
330
1F
100
AcDbEntity
  8
KONTUR
100
AcDbLine
 10
237.202009635
 20
1847.8813947811
 30
0.0
 11
237.202009635
 21
1848.7813947811
 31
0.0
  0
LINE
  5
60E
330
1F
100
AcDbEntity
  8
KONTUR
100
AcDbLine
 10
237.202009635
 20
1848.7813947811
 30
0.0
 11
236.6381940625
 21
1848.7813947811
 31
0.0
  0
LINE
  5
60F
330
1F
100
AcDbEntity
  8
KONTUR
100
AcDbLine
 10
237.202009635
 20
1848.7813947811
 30
0.0
 11
237.5903351985
 21
1848.7813947811
 31
0.0
  0
LINE
  5
610
330
1F
100
AcDbEntity
  8
KONTUR
100
AcDbLine
 10
237.202009635
 20
1121.9813947811
 30
0.0
 11
237.5903351985
 21
1121.9813947811
 31
0.0
  0
LINE
  5
611
330
1F
100
AcDbEntity
  8
KONTUR
100
AcDbLine
 10
237.4839174212
 20
1122.5813947811
 30
0.0
 11
237.202009635
 21
1122.5813947811
 31
0.0
  0
LINE
  5
612
330
1F
100
AcDbEntity
  8
KONTUR
100
AcDbLine
 10
237.202009635
 20
1848.1813947811
 30
0.0
 11
237.4839174212
 21
1848.1813947811
 31
0.0
  0
LINE
  5
613
330
1F
100
AcDbEntity
  8
KONTUR
100
AcDbLine
 10
910.4839174212
 20
1848.1813947811
 30
0.0
 11
910.4839174212
 21
1848.0753287639
 31
0.0
  0
LINE
  5
614
330
1F
100
AcDbEntity
  8
KONTUR
100
AcDbLine
 10
910.4839174212
 20
1122.6842082969
 30
0.0
 11
910.4839174212
 21
1122.5813947811
 31
0.0
  0
LINE
  5
615
330
1F
100
AcDbEntity
  8
KONTUR
100
AcDbLine
 10
910.4839174212
 20
1122.5813947811
 30
0.0
 11
910.3532257718
 21
1122.5813947811
 31
0.0
  0
LINE
  5
616
330
1F
100
AcDbEntity
  8
KONTUR
100
AcDbLine
 10
910.3532280306
 20
1848.1813947811
 30
0.0
 11
910.4839174212
 21
1848.1813947811
 31
0.0
  0
ARC
  5
617
330
1F
100
AcDbEntity
  8
KONTUR
100
AcDbCircle
 10
917.3339174212
 20
1093.9813947811
 30
0.0
 40
5.500000000000131
100
AcDbArc
 50
326.9198589399
 51
129.1389888059
  0
LINE
  5
618
330
1F
100
AcDbEntity
  8
KONTUR
100
AcDbLine
 10
913.8622968084
 20
1098.2472886289
 30
0.0
 11
921.9424111317
 21
1090.979431137
 31
0.0
  0
ARC
  5
619
330
1F
100
AcDbEntity
  8
KONTUR
100
AcDbCircle
 10
917.3339174212
 20
1093.9813947811
 30
0.0
 40
5.500000000000058
100
AcDbArc
 50
146.9198589399
 51
309.1389888059
  0
LINE
  5
61A
330
1F
100
AcDbEntity
  8
KONTUR
100
AcDbLine
 10
912.7254237107
 20
1096.9833584252
 30
0.0
 11
920.805538034
 21
1089.7155009333
 31
0.0
  0
ARC
  5
61B
330
1F
100
AcDbEntity
  8
KONTUR
100
AcDbCircle
 10
917.3339174212
 20
1093.9813947811
 30
0.0
 40
4.899999999999916
100
AcDbArc
 50
308.0398256426
 51
328.0190221032
  0
ARC
  5
61C
330
1F
100
AcDbEntity
  8
KONTUR
100
AcDbCircle
 10
917.3339174212
 20
1093.9813947811
 30
0.0
 40
4.900000000000169
100
AcDbArc
 50
128.0398256426
 51
148.0190221032
  0
ARC
  5
61D
330
1F
100
AcDbEntity
  8
KONTUR
100
AcDbCircle
 10
917.3339174212
 20
1133.9813947811
 30
0.0
 40
5.500000000000082
100
AcDbArc
 50
270.450713886
 51
72.6698437521
  0
LINE
  5
61E
330
1F
100
AcDbEntity
  8
KONTUR
100
AcDbLine
 10
917.3771824021
 20
1128.4815649527
 30
0.0
 11
918.9722428359
 21
1139.2317176126
 31
0.0
  0
LINE
  5
61F
330
1F
100
AcDbEntity
  8
KONTUR
100
AcDbLine
 10
915.6955920066
 20
1128.7310719495
 30
0.0
 11
917.2906524403
 21
1139.4812246095
 31
0.0
  0
ARC
  5
620
330
1F
100
AcDbEntity
  8
KONTUR
100
AcDbCircle
 10
917.3339174212
 20
1133.9813947811
 30
0.0
 40
5.500000000000155
100
AcDbArc
 50
90.450713886
 51
252.6698437521
  0
ARC
  5
621
330
1F
100
AcDbEntity
  8
KONTUR
100
AcDbCircle
 10
917.3339174212
 20
1133.9813947811
 30
0.0
 40
4.899999999999908
100
AcDbArc
 50
71.5706805888
 51
91.5498770493
  0
ARC
  5
622
330
1F
100
AcDbEntity
  8
KONTUR
100
AcDbCircle
 10
917.3339174212
 20
1133.9813947811
 30
0.0
 40
4.900000000000191
100
AcDbArc
 50
251.5706805888
 51
271.5498770493
  0
CIRCLE
  5
623
330
1F
100
AcDbEntity
  8
KONTUR
100
AcDbCircle
 10
917.3339174212
 20
1093.9813947811
 30
0.0
 40
6.200000000000159
  0
CIRCLE
  5
624
330
1F
100
AcDbEntity
  8
KONTUR
100
AcDbCircle
 10
917.3339174212
 20
1133.9813947811
 30
0.0
 40
6.200000000000159
  0
LINE
  5
625
330
1F
100
AcDbEntity
  8
KONTUR
100
AcDbLine
 10
932.3339174212
 20
1086.9813947811
 30
0.0
 11
932.3339174212
 21
1111.4813947811
 31
0.0
  0
LINE
  5
626
330
1F
100
AcDbEntity
  8
KONTUR
100
AcDbLine
 10
932.3339174212
 20
1116.4813947811
 30
0.0
 11
932.3339174212
 21
1140.9813947811
 31
0.0
  0
LINE
  5
627
330
1F
100
AcDbEntity
  8
KONTUR
100
AcDbLine
 10
927.3339174212
 20
1116.5313947811
 30
0.0
 11
907.3339174212
 21
1116.5313947811
 31
0.0
  0
LINE
  5
628
330
1F
100
AcDbEntity
  8
KONTUR
100
AcDbLine
 10
927.3339174212
 20
1111.4313947811
 30
0.0
 11
927.3339174212
 21
1111.4813947811
 31
0.0
  0
LINE
  5
629
330
1F
100
AcDbEntity
  8
KONTUR
100
AcDbLine
 10
927.3339174212
 20
1116.4813947811
 30
0.0
 11
927.3339174212
 21
1116.5313947811
 31
0.0
  0
ARC
  5
62A
330
1F
100
AcDbEntity
  8
KONTUR
100
AcDbCircle
 10
929.3339174212
 20
1140.9813947811
 30
0.0
 40
3.0
100
AcDbArc
 50
0.0
 51
90.0
  0
LINE
  5
62B
330
1F
100
AcDbEntity
  8
KONTUR
100
AcDbLine
 10
907.3339174212
 20
1116.5313947811
 30
0.0
 11
907.3339174212
 21
1116.4813947811
 31
0.0
  0
LINE
  5
62C
330
1F
100
AcDbEntity
  8
KONTUR
100
AcDbLine
 10
907.3339174212
 20
1111.4813947811
 30
0.0
 11
907.3339174212
 21
1111.4313947811
 31
0.0
  0
LINE
  5
62D
330
1F
100
AcDbEntity
  8
KONTUR
100
AcDbLine
 10
929.3339174212
 20
1143.9813947811
 30
0.0
 11
911.0839174212
 21
1143.9813947811
 31
0.0
  0
ARC
  5
62E
330
1F
100
AcDbEntity
  8
KONTUR
100
AcDbCircle
 10
929.3339174212
 20
1086.9813947811
 30
0.0
 40
3.0
100
AcDbArc
 50
270.0
 51
0.0
  0
LINE
  5
62F
330
1F
100
AcDbEntity
  8
KONTUR
100
AcDbLine
 10
902.3339174212
 20
1119.4813947811
 30
0.0
 11
902.3339174212
 21
1116.4813947811
 31
0.0
  0
LINE
  5
630
330
1F
100
AcDbEntity
  8
KONTUR
100
AcDbLine
 10
902.3339174212
 20
1111.4813947811
 30
0.0
 11
902.3339174212
 21
1107.4813947811
 31
0.0
  0
LINE
  5
631
330
1F
100
AcDbEntity
  8
KONTUR
100
AcDbLine
 10
907.3339174212
 20
1111.4313947811
 30
0.0
 11
927.3339174212
 21
1111.4313947811
 31
0.0
  0
LINE
  5
632
330
1F
100
AcDbEntity
  8
KONTUR
100
AcDbLine
 10
911.0839174212
 20
1083.9813947811
 30
0.0
 11
929.3339174212
 21
1083.9813947811
 31
0.0
  0
LINE
  5
633
330
1F
100
AcDbEntity
  8
KONTUR
100
AcDbLine
 10
876.8339174212
 20
1116.4813947811
 30
0.0
 11
876.8339174212
 21
1111.4813947811
 31
0.0
  0
LINE
  5
634
330
1F
100
AcDbEntity
  8
KONTUR
100
AcDbLine
 10
876.8339174212
 20
1116.4813947811
 30
0.0
 11
880.8339174212
 21
1116.4813947811
 31
0.0
  0
LINE
  5
635
330
1F
100
AcDbEntity
  8
KONTUR
100
AcDbLine
 10
876.8339174212
 20
1111.4813947811
 30
0.0
 11
880.8339174212
 21
1111.4813947811
 31
0.0
  0
LINE
  5
636
330
1F
100
AcDbEntity
  8
KONTUR
100
AcDbLine
 10
880.8339174212
 20
1116.4813947811
 30
0.0
 11
908.7438530811
 21
1116.4813947811
 31
0.0
  0
LINE
  5
637
330
1F
100
AcDbEntity
  8
KONTUR
100
AcDbLine
 10
880.8339174212
 20
1111.4813947811
 30
0.0
 11
908.7438530811
 21
1111.4813947811
 31
0.0
  0
LINE
  5
638
330
1F
100
AcDbEntity
  8
KONTUR
100
AcDbLine
 10
908.7438530811
 20
1116.4813947811
 30
0.0
 11
912.2306478135
 21
1116.4813947811
 31
0.0
  0
LINE
  5
639
330
1F
100
AcDbEntity
  8
KONTUR
100
AcDbLine
 10
908.7438530811
 20
1111.4813947811
 30
0.0
 11
912.2306478135
 21
1111.4813947811
 31
0.0
  0
LINE
  5
63A
330
1F
100
AcDbEntity
  8
KONTUR
100
AcDbLine
 10
912.2306478135
 20
1116.4813947811
 30
0.0
 11
931.8207121536
 21
1116.4813947811
 31
0.0
  0
LINE
  5
63B
330
1F
100
AcDbEntity
  8
KONTUR
100
AcDbLine
 10
912.2306478135
 20
1111.4813947811
 30
0.0
 11
931.8207121536
 21
1111.4813947811
 31
0.0
  0
LINE
  5
63C
330
1F
100
AcDbEntity
  8
KONTUR
100
AcDbLine
 10
932.3339174212
 20
1116.4813947811
 30
0.0
 11
932.3339174212
 21
1111.4813947811
 31
0.0
  0
LINE
  5
63D
330
1F
100
AcDbEntity
  8
KONTUR
100
AcDbLine
 10
931.8207121536
 20
1116.4813947811
 30
0.0
 11
932.3339174212
 21
1116.4813947811
 31
0.0
  0
LINE
  5
63E
330
1F
100
AcDbEntity
  8
KONTUR
100
AcDbLine
 10
931.8207121536
 20
1111.4813947811
 30
0.0
 11
932.3339174212
 21
1111.4813947811
 31
0.0
  0
LINE
  5
63F
330
1F
100
AcDbEntity
  8
KONTUR
100
AcDbLine
 10
320.4339174212
 20
1104.9813947811
 30
0.0
 11
320.4339174212
 21
1121.9813947811
 31
0.0
  0
LINE
  5
640
330
1F
100
AcDbEntity
  8
KONTUR
100
AcDbLine
 10
827.2339174212
 20
1104.9813947811
 30
0.0
 11
827.2339174212
 21
1121.9813947811
 31
0.0
  0
LINE
  5
641
330
1F
100
AcDbEntity
  8
KONTUR
100
AcDbLine
 10
303.707270596
 20
1104.9813947811
 30
0.0
 11
303.707270596
 21
1121.9813947811
 31
0.0
  0
LINE
  5
642
330
1F
100
AcDbEntity
  8
KONTUR
100
AcDbLine
 10
843.9605642464
 20
1118.9949736527
 30
0.0
 11
843.9605642464
 21
1107.9678159094
 31
0.0
  0
LINE
  5
643
330
1F
100
AcDbEntity
  8
KONTUR
100
AcDbLine
 10
828.3339582399
 20
338.4728880532
 30
0.0
 11
826.9120445467
 21
337.4446234504
 31
0.0
  0
ARC
  5
644
330
1F
100
AcDbEntity
  8
KONTUR
100
AcDbCircle
 10
845.2621258501
 20
349.8383874226
 30
0.0
 40
22.14341593433451
100
AcDbArc
 50
214.0353470159
 51
217.710207046
  0
LINE
  5
645
330
1F
100
AcDbEntity
  8
KONTUR
100
AcDbLine
 10
827.7441466761
 20
336.293968834
 30
0.0
 11
829.1660603694
 21
337.3222334369
 31
0.0
  0
ARC
  5
646
330
1F
100
AcDbEntity
  8
KONTUR
100
AcDbCircle
 10
829.8339174212
 20
338.681394781
 30
0.0
 40
1.514381920477548
100
AcDbArc
 50
243.8316809974
 51
277.9138730645
  0
LINE
  5
647
330
1F
100
AcDbEntity
  8
KONTUR
100
AcDbLine
 10
830.042424149
 20
337.1814355997
 30
0.0
 11
831.0706887518
 21
335.7595219065
 31
0.0
  0
ARC
  5
648
330
1F
100
AcDbEntity
  8
KONTUR
100
AcDbCircle
 10
818.6769247796
 20
354.10960321
 30
0.0
 40
22.14341593444496
100
AcDbArc
 50
304.0353470159
 51
307.710207046
  0
LINE
  5
649
330
1F
100
AcDbEntity
  8
KONTUR
100
AcDbLine
 10
832.2213433682
 20
336.591624036
 30
0.0
 11
831.1930787653
 21
338.0135377292
 31
0.0
  0
ARC
  5
64A
330
1F
100
AcDbEntity
  8
KONTUR
100
AcDbCircle
 10
829.8339174212
 20
338.681394781
 30
0.0
 40
1.514381920477517
100
AcDbArc
 50
333.8316809974
 51
7.9138730645
  0
LINE
  5
64B
330
1F
100
AcDbEntity
  8
KONTUR
100
AcDbLine
 10
831.3338766025
 20
338.8899015088
 30
0.0
 11
832.7557902958
 21
339.9181661116
 31
0.0
  0
ARC
  5
64C
330
1F
100
AcDbEntity
  8
KONTUR
100
AcDbCircle
 10
814.4057089922
 20
327.5244021393
 30
0.0
 40
22.1434159345451
100
AcDbArc
 50
34.0353470159
 51
37.710207046
  0
LINE
  5
64D
330
1F
100
AcDbEntity
  8
KONTUR
100
AcDbLine
 10
831.9236881663
 20
341.068820728
 30
0.0
 11
830.501774473
 21
340.0405561252
 31
0.0
  0
ARC
  5
64E
330
1F
100
AcDbEntity
  8
KONTUR
100
AcDbCircle
 10
829.8339174212
 20
338.681394781
 30
0.0
 40
1.514381920477291
100
AcDbArc
 50
63.8316809974
 51
97.9138730645
  0
LINE
  5
64F
330
1F
100
AcDbEntity
  8
KONTUR
100
AcDbLine
 10
829.6254106934
 20
340.1813539623
 30
0.0
 11
828.5971460906
 21
341.6032676556
 31
0.0
  0
ARC
  5
650
330
1F
100
AcDbEntity
  8
KONTUR
100
AcDbCircle
 10
840.9909100629
 20
323.253186352
 30
0.0
 40
22.1434159344678
100
AcDbArc
 50
124.0353470159
 51
127.710207046
  0
LINE
  5
651
330
1F
100
AcDbEntity
  8
KONTUR
100
AcDbLine
 10
827.4464914742
 20
340.7711655261
 30
0.0
 11
828.4747560771
 21
339.3492518328
 31
0.0
  0
ARC
  5
652
330
1F
100
AcDbEntity
  8
KONTUR
100
AcDbCircle
 10
829.8339174212
 20
338.681394781
 30
0.0
 40
1.514381920477339
100
AcDbArc
 50
153.8316809974
 51
187.9138730645
  0
ARC
  5
653
330
1F
100
AcDbEntity
  8
KONTUR
100
AcDbCircle
 10
829.8339174212
 20
338.681394781
 30
0.0
 40
1.280500000000014
100
AcDbArc
 50
339.5470571242
 51
2.1984969377
  0
ARC
  5
654
330
1F
100
AcDbEntity
  8
KONTUR
100
AcDbCircle
 10
829.8339174212
 20
338.681394781
 30
0.0
 40
1.280500000000014
100
AcDbArc
 50
69.5470571242
 51
92.1984969377
  0
ARC
  5
655
330
1F
100
AcDbEntity
  8
KONTUR
100
AcDbCircle
 10
829.8339174212
 20
338.681394781
 30
0.0
 40
1.280500000000055
100
AcDbArc
 50
249.5470571242
 51
272.1984969377
  0
ARC
  5
656
330
1F
100
AcDbEntity
  8
KONTUR
100
AcDbCircle
 10
829.8339174212
 20
338.681394781
 30
0.0
 40
1.280500000000014
100
AcDbArc
 50
159.5470571242
 51
182.1984969377
  0
LINE
  5
657
330
1F
100
AcDbEntity
  8
KONTUR
100
AcDbLine
 10
829.457069269
 20
340.4141412973
 30
0.0
 11
828.3064146526
 21
339.5820391678
 31
0.0
  0
LINE
  5
658
330
1F
100
AcDbEntity
  8
KONTUR
100
AcDbLine
 10
831.5666639375
 20
339.0582429332
 30
0.0
 11
830.734561808
 21
340.2088975496
 31
0.0
  0
LINE
  5
659
330
1F
100
AcDbEntity
  8
KONTUR
100
AcDbLine
 10
830.2107655734
 20
336.9486482648
 30
0.0
 11
831.3614201898
 21
337.7807503942
 31
0.0
  0
LINE
  5
65A
330
1F
100
AcDbEntity
  8
KONTUR
100
AcDbLine
 10
828.101170905
 20
338.3045466288
 30
0.0
 11
828.9332730344
 21
337.1538920125
 31
0.0
  0
CIRCLE
  5
65B
330
1F
100
AcDbEntity
  8
KONTUR
100
AcDbCircle
 10
829.8339174212
 20
338.681394781
 30
0.0
 40
6.000000000000083
  0
ARC
  5
65C
330
1F
100
AcDbEntity
  8
KONTUR
100
AcDbCircle
 10
829.8339174212
 20
338.681394781
 30
0.0
 40
1.280500000000055
100
AcDbArc
 50
272.1984969377
 51
339.5470571242
  0
ARC
  5
65D
330
1F
100
AcDbEntity
  8
KONTUR
100
AcDbCircle
 10
829.8339174212
 20
338.681394781
 30
0.0
 40
1.280500000000014
100
AcDbArc
 50
182.1984969377
 51
249.5470571242
  0
ARC
  5
65E
330
1F
100
AcDbEntity
  8
KONTUR
100
AcDbCircle
 10
829.8339174212
 20
338.681394781
 30
0.0
 40
1.280500000000014
100
AcDbArc
 50
92.1984969377
 51
159.5470571242
  0
ARC
  5
65F
330
1F
100
AcDbEntity
  8
KONTUR
100
AcDbCircle
 10
829.8339174212
 20
338.681394781
 30
0.0
 40
1.280500000000014
100
AcDbArc
 50
2.1984969377
 51
69.5470571242
  0
LINE
  5
660
330
1F
100
AcDbEntity
  8
KONTUR
100
AcDbLine
 10
865.5910854267
 20
351.9929012479
 30
0.0
 11
865.65355265
 21
353.7465444529
 31
0.0
  0
ARC
  5
661
330
1F
100
AcDbEntity
  8
KONTUR
100
AcDbCircle
 10
864.1561285046
 20
331.6538173651
 30
0.0
 40
22.14341593443366
100
AcDbArc
 50
86.1224767824
 51
89.7973368125
  0
LINE
  5
662
330
1F
100
AcDbEntity
  8
KONTUR
100
AcDbLine
 10
864.2344527012
 20
353.7970947776
 30
0.0
 11
864.1719854779
 21
352.0434515726
 31
0.0
  0
ARC
  5
663
330
1F
100
AcDbEntity
  8
KONTUR
100
AcDbCircle
 10
864.8339174212
 20
350.681394781
 30
0.0
 40
1.514381920477349
100
AcDbArc
 50
115.9188107639
 51
150.001002831
  0
LINE
  5
664
330
1F
100
AcDbEntity
  8
KONTUR
100
AcDbLine
 10
863.5224109544
 20
351.4385627865
 30
0.0
 11
861.7687677493
 21
351.5010300098
 31
0.0
  0
ARC
  5
665
330
1F
100
AcDbEntity
  8
KONTUR
100
AcDbCircle
 10
883.8614948372
 20
350.0036058644
 30
0.0
 40
22.14341593449875
100
AcDbArc
 50
176.1224767825
 51
179.7973368125
  0
LINE
  5
666
330
1F
100
AcDbEntity
  8
KONTUR
100
AcDbLine
 10
861.7182174246
 20
350.081930061
 30
0.0
 11
863.4718606296
 21
350.0194628377
 31
0.0
  0
ARC
  5
667
330
1F
100
AcDbEntity
  8
KONTUR
100
AcDbCircle
 10
864.8339174212
 20
350.681394781
 30
0.0
 40
1.514381920477446
100
AcDbArc
 50
205.918810764
 51
240.001002831
  0
LINE
  5
668
330
1F
100
AcDbEntity
  8
KONTUR
100
AcDbLine
 10
864.0767494158
 20
349.3698883142
 30
0.0
 11
864.0142821924
 21
347.6162451091
 31
0.0
  0
ARC
  5
669
330
1F
100
AcDbEntity
  8
KONTUR
100
AcDbCircle
 10
865.5117063378
 20
369.708972197
 30
0.0
 40
22.14341593453121
100
AcDbArc
 50
266.1224767825
 51
269.7973368125
  0
LINE
  5
66A
330
1F
100
AcDbEntity
  8
KONTUR
100
AcDbLine
 10
865.4333821412
 20
347.5656947844
 30
0.0
 11
865.4958493646
 21
349.3193379895
 31
0.0
  0
ARC
  5
66B
330
1F
100
AcDbEntity
  8
KONTUR
100
AcDbCircle
 10
864.8339174212
 20
350.681394781
 30
0.0
 40
1.514381920477476
100
AcDbArc
 50
295.918810764
 51
330.001002831
  0
LINE
  5
66C
330
1F
100
AcDbEntity
  8
KONTUR
100
AcDbLine
 10
866.1454238881
 20
349.9242267756
 30
0.0
 11
867.8990670931
 21
349.8617595522
 31
0.0
  0
ARC
  5
66D
330
1F
100
AcDbEntity
  8
KONTUR
100
AcDbCircle
 10
845.8063400054
 20
351.3591836976
 30
0.0
 40
22.14341593440643
100
AcDbArc
 50
356.1224767824
 51
359.7973368125
  0
LINE
  5
66E
330
1F
100
AcDbEntity
  8
KONTUR
100
AcDbLine
 10
867.9496174178
 20
351.280859501
 30
0.0
 11
866.1959742128
 21
351.3433267244
 31
0.0
  0
ARC
  5
66F
330
1F
100
AcDbEntity
  8
KONTUR
100
AcDbCircle
 10
864.8339174212
 20
350.681394781
 30
0.0
 40
1.514381920477523
100
AcDbArc
 50
25.9188107639
 51
60.001002831
  0
ARC
  5
670
330
1F
100
AcDbEntity
  8
KONTUR
100
AcDbCircle
 10
864.8339174212
 20
350.681394781
 30
0.0
 40
1.280499999999974
100
AcDbArc
 50
121.6341868907
 51
144.2856267042
  0
ARC
  5
671
330
1F
100
AcDbEntity
  8
KONTUR
100
AcDbCircle
 10
864.8339174212
 20
350.681394781
 30
0.0
 40
1.280500000000022
100
AcDbArc
 50
301.6341868907
 51
324.2856267042
  0
ARC
  5
672
330
1F
100
AcDbEntity
  8
KONTUR
100
AcDbCircle
 10
864.8339174212
 20
350.681394781
 30
0.0
 40
1.2805000000001
100
AcDbArc
 50
31.6341868907
 51
54.2856267042
  0
ARC
  5
673
330
1F
100
AcDbEntity
  8
KONTUR
100
AcDbCircle
 10
864.8339174212
 20
350.681394781
 30
0.0
 40
1.280500000000003
100
AcDbArc
 50
211.6341868907
 51
234.2856267042
  0
LINE
  5
674
330
1F
100
AcDbEntity
  8
KONTUR
100
AcDbLine
 10
863.2353148176
 20
351.4487895523
 30
0.0
 11
863.1847644929
 21
350.0296896036
 31
0.0
  0
LINE
  5
675
330
1F
100
AcDbEntity
  8
KONTUR
100
AcDbLine
 10
865.6013121925
 20
352.2799973847
 30
0.0
 11
864.1822122437
 21
352.3305477094
 31
0.0
  0
LINE
  5
676
330
1F
100
AcDbEntity
  8
KONTUR
100
AcDbLine
 10
864.0665226499
 20
349.0827921774
 30
0.0
 11
865.4856225987
 21
349.0322418527
 31
0.0
  0
LINE
  5
677
330
1F
100
AcDbEntity
  8
KONTUR
100
AcDbLine
 10
866.4325200248
 20
349.9140000097
 30
0.0
 11
866.4830703496
 21
351.3330999585
 31
0.0
  0
CIRCLE
  5
678
330
1F
100
AcDbEntity
  8
KONTUR
100
AcDbCircle
 10
864.8339174212
 20
350.681394781
 30
0.0
 40
5.999999999999881
  0
ARC
  5
679
330
1F
100
AcDbEntity
  8
KONTUR
100
AcDbCircle
 10
864.8339174212
 20
350.681394781
 30
0.0
 40
1.280500000000009
100
AcDbArc
 50
54.2856267042
 51
121.6341868907
  0
ARC
  5
67A
330
1F
100
AcDbEntity
  8
KONTUR
100
AcDbCircle
 10
864.8339174212
 20
350.681394781
 30
0.0
 40
1.2805000000001
100
AcDbArc
 50
324.2856267042
 51
31.6341868907
  0
ARC
  5
67B
330
1F
100
AcDbEntity
  8
KONTUR
100
AcDbCircle
 10
864.8339174212
 20
350.681394781
 30
0.0
 40
1.280500000000003
100
AcDbArc
 50
144.2856267042
 51
211.6341868907
  0
ARC
  5
67C
330
1F
100
AcDbEntity
  8
KONTUR
100
AcDbCircle
 10
864.8339174212
 20
350.681394781
 30
0.0
 40
1.280500000000022
100
AcDbArc
 50
234.2856267042
 51
301.6341868907
  0
LINE
  5
67D
330
1F
100
AcDbEntity
  8
KONTUR
100
AcDbLine
 10
901.2663674721
 20
339.1727596685
 30
0.0
 11
902.465522321
 21
340.4538507242
 31
0.0
  0
ARC
  5
67E
330
1F
100
AcDbEntity
  8
KONTUR
100
AcDbCircle
 10
886.822712145
 20
324.7811560274
 30
0.0
 40
22.14341593475709
100
AcDbArc
 50
45.0546775918
 51
48.7295376218
  0
LINE
  5
67F
330
1F
100
AcDbEntity
  8
KONTUR
100
AcDbLine
 10
901.4288255481
 20
341.4242422952
 30
0.0
 11
900.2296706992
 21
340.1431512395
 31
0.0
  0
ARC
  5
680
330
1F
100
AcDbEntity
  8
KONTUR
100
AcDbCircle
 10
899.8339174212
 20
338.681394781
 30
0.0
 40
1.514381920477342
100
AcDbArc
 50
74.8510115733
 51
108.9332036403
  0
LINE
  5
681
330
1F
100
AcDbEntity
  8
KONTUR
100
AcDbLine
 10
899.3425525337
 20
340.1138448319
 30
0.0
 11
898.0614614781
 21
341.3129996809
 31
0.0
  0
ARC
  5
682
330
1F
100
AcDbEntity
  8
KONTUR
100
AcDbCircle
 10
913.7341561746
 20
325.670189505
 30
0.0
 40
22.14341593454723
100
AcDbArc
 50
135.0546775918
 51
138.7295376218
  0
LINE
  5
683
330
1F
100
AcDbEntity
  8
KONTUR
100
AcDbLine
 10
897.0910699071
 20
340.276302908
 30
0.0
 11
898.3721609627
 21
339.077148059
 31
0.0
  0
ARC
  5
684
330
1F
100
AcDbEntity
  8
KONTUR
100
AcDbCircle
 10
899.8339174212
 20
338.681394781
 30
0.0
 40
1.514381920477538
100
AcDbArc
 50
164.8510115733
 51
198.9332036403
  0
LINE
  5
685
330
1F
100
AcDbEntity
  8
KONTUR
100
AcDbLine
 10
898.4014673703
 20
338.1900298935
 30
0.0
 11
897.2023125214
 21
336.9089388379
 31
0.0
  0
ARC
  5
686
330
1F
100
AcDbEntity
  8
KONTUR
100
AcDbCircle
 10
912.8451226972
 20
352.5816335345
 30
0.0
 40
22.14341593456491
100
AcDbArc
 50
225.0546775918
 51
228.7295376218
  0
LINE
  5
687
330
1F
100
AcDbEntity
  8
KONTUR
100
AcDbLine
 10
898.2390092943
 20
335.9385472669
 30
0.0
 11
899.4381641432
 21
337.2196383225
 31
0.0
  0
ARC
  5
688
330
1F
100
AcDbEntity
  8
KONTUR
100
AcDbCircle
 10
899.8339174212
 20
338.681394781
 30
0.0
 40
1.514381920477464
100
AcDbArc
 50
254.8510115733
 51
288.9332036403
  0
LINE
  5
689
330
1F
100
AcDbEntity
  8
KONTUR
100
AcDbLine
 10
900.3252823087
 20
337.2489447301
 30
0.0
 11
901.6063733644
 21
336.0497898812
 31
0.0
  0
ARC
  5
68A
330
1F
100
AcDbEntity
  8
KONTUR
100
AcDbCircle
 10
885.9336786679
 20
351.6926000569
 30
0.0
 40
22.14341593437648
100
AcDbArc
 50
315.0546775918
 51
318.7295376218
  0
LINE
  5
68B
330
1F
100
AcDbEntity
  8
KONTUR
100
AcDbLine
 10
902.5767649354
 20
337.0864866541
 30
0.0
 11
901.2956738797
 21
338.285641503
 31
0.0
  0
ARC
  5
68C
330
1F
100
AcDbEntity
  8
KONTUR
100
AcDbCircle
 10
899.8339174212
 20
338.681394781
 30
0.0
 40
1.514381920477449
100
AcDbArc
 50
344.8510115733
 51
18.9332036403
  0
ARC
  5
68D
330
1F
100
AcDbEntity
  8
KONTUR
100
AcDbCircle
 10
899.8339174212
 20
338.681394781
 30
0.0
 40
1.280499999999963
100
AcDbArc
 50
260.5663877
 51
283.2178275136
  0
ARC
  5
68E
330
1F
100
AcDbEntity
  8
KONTUR
100
AcDbCircle
 10
899.8339174212
 20
338.681394781
 30
0.0
 40
1.280499999999954
100
AcDbArc
 50
350.5663877
 51
13.2178275136
  0
ARC
  5
68F
330
1F
100
AcDbEntity
  8
KONTUR
100
AcDbCircle
 10
899.8339174212
 20
338.681394781
 30
0.0
 40
1.280500000000007
100
AcDbArc
 50
80.5663877
 51
103.2178275136
  0
ARC
  5
690
330
1F
100
AcDbEntity
  8
KONTUR
100
AcDbCircle
 10
899.8339174212
 20
338.681394781
 30
0.0
 40
1.280500000000134
100
AcDbArc
 50
170.5663877
 51
193.2178275136
  0
LINE
  5
691
330
1F
100
AcDbEntity
  8
KONTUR
100
AcDbLine
 10
899.1328198515
 20
340.3101634009
 30
0.0
 11
898.1624282805
 21
339.273466628
 31
0.0
  0
LINE
  5
692
330
1F
100
AcDbEntity
  8
KONTUR
100
AcDbLine
 10
901.4626860411
 20
339.3824923507
 30
0.0
 11
900.4259892682
 21
340.3528839217
 31
0.0
  0
LINE
  5
693
330
1F
100
AcDbEntity
  8
KONTUR
100
AcDbLine
 10
900.5350149909
 20
337.0526261611
 30
0.0
 11
901.5054065619
 21
338.089322934
 31
0.0
  0
LINE
  5
694
330
1F
100
AcDbEntity
  8
KONTUR
100
AcDbLine
 10
898.2051488013
 20
337.9802972113
 30
0.0
 11
899.2418455742
 21
337.0099056403
 31
0.0
  0
CIRCLE
  5
695
330
1F
100
AcDbEntity
  8
KONTUR
100
AcDbCircle
 10
899.8339174212
 20
338.681394781
 30
0.0
 40
6.000000000000054
  0
ARC
  5
696
330
1F
100
AcDbEntity
  8
KONTUR
100
AcDbCircle
 10
899.8339174212
 20
338.681394781
 30
0.0
 40
1.280500000000007
100
AcDbArc
 50
103.2178275136
 51
170.5663877
  0
ARC
  5
697
330
1F
100
AcDbEntity
  8
KONTUR
100
AcDbCircle
 10
899.8339174212
 20
338.681394781
 30
0.0
 40
1.280499999999982
100
AcDbArc
 50
13.2178275136
 51
80.5663877
  0
ARC
  5
698
330
1F
100
AcDbEntity
  8
KONTUR
100
AcDbCircle
 10
899.8339174212
 20
338.681394781
 30
0.0
 40
1.280499999999954
100
AcDbArc
 50
283.2178275136
 51
350.5663877
  0
ARC
  5
699
330
1F
100
AcDbEntity
  8
KONTUR
100
AcDbCircle
 10
899.8339174212
 20
338.681394781
 30
0.0
 40
1.280500000000134
100
AcDbArc
 50
193.2178275136
 51
260.5663877
  0
LINE
  5
69A
330
1F
100
AcDbEntity
  8
KONTUR
100
AcDbLine
 10
330.171546892
 20
315.5967274929
 30
0.0
 11
329.5439174212
 21
315.5967274929
 31
0.0
  0
LINE
  5
69B
330
1F
100
AcDbEntity
  8
KONTUR
100
AcDbLine
 10
328.1239174212
 20
315.5967274929
 30
0.0
 11
327.4962879504
 21
315.5967274929
 31
0.0
  0
LINE
  5
69C
330
1F
100
AcDbEntity
  8
KONTUR
100
AcDbLine
 10
281.9263023292
 20
315.9980907376
 30
0.0
 11
281.9376859098
 21
315.9752588064
 31
0.0
  0
ARC
  5
69D
330
1F
100
AcDbEntity
  8
KONTUR
100
AcDbCircle
 10
278.8339174212
 20
325.4813947811
 30
0.0
 40
9.974763155082872
100
AcDbArc
 50
277.7066600754
 51
288.0604891642
  0
LINE
  5
69E
330
1F
100
AcDbEntity
  8
KONTUR
100
AcDbLine
 10
280.171546892
 20
315.5967274929
 30
0.0
 11
279.5439174212
 21
315.5967274929
 31
0.0
  0
LINE
  5
69F
330
1F
100
AcDbEntity
  8
KONTUR
100
AcDbLine
 10
279.5439174212
 20
315.5967274929
 30
0.0
 11
279.5439174212
 21
315.9980907376
 31
0.0
  0
ARC
  5
6A0
330
1F
100
AcDbEntity
  8
KONTUR
100
AcDbCircle
 10
278.8339174212
 20
327.025565667
 30
0.0
 40
11.05030783813964
100
AcDbArc
 50
266.3161166332
 51
273.6838833668
  0
LINE
  5
6A1
330
1F
100
AcDbEntity
  8
KONTUR
100
AcDbLine
 10
278.1239174212
 20
315.9980907376
 30
0.0
 11
278.1239174212
 21
315.5967274929
 31
0.0
  0
LINE
  5
6A2
330
1F
100
AcDbEntity
  8
KONTUR
100
AcDbLine
 10
278.1239174212
 20
315.5967274929
 30
0.0
 11
277.4962879504
 21
315.5967274929
 31
0.0
  0
ARC
  5
6A3
330
1F
100
AcDbEntity
  8
KONTUR
100
AcDbCircle
 10
278.8339174212
 20
325.4813947811
 30
0.0
 40
9.974763155082872
100
AcDbArc
 50
251.9395108358
 51
262.2933399246
  0
LINE
  5
6A4
330
1F
100
AcDbEntity
  8
KONTUR
100
AcDbLine
 10
275.7301489326
 20
315.9752588064
 30
0.0
 11
275.7415325132
 21
315.9980907376
 31
0.0
  0
LINE
  5
6A5
330
1F
100
AcDbEntity
  8
KONTUR
100
AcDbLine
 10
871.9263023292
 20
315.9980907376
 30
0.0
 11
871.9376859098
 21
315.9752588064
 31
0.0
  0
ARC
  5
6A6
330
1F
100
AcDbEntity
  8
KONTUR
100
AcDbCircle
 10
868.8339174212
 20
325.4813947811
 30
0.0
 40
9.974763155082854
100
AcDbArc
 50
277.7066600754
 51
288.0604891642
  0
LINE
  5
6A7
330
1F
100
AcDbEntity
  8
KONTUR
100
AcDbLine
 10
870.171546892
 20
315.5967274929
 30
0.0
 11
869.5439174212
 21
315.5967274929
 31
0.0
  0
LINE
  5
6A8
330
1F
100
AcDbEntity
  8
KONTUR
100
AcDbLine
 10
869.5439174212
 20
315.5967274929
 30
0.0
 11
869.5439174212
 21
315.9980907376
 31
0.0
  0
ARC
  5
6A9
330
1F
100
AcDbEntity
  8
KONTUR
100
AcDbCircle
 10
868.8339174212
 20
327.025565667
 30
0.0
 40
11.05030783813726
100
AcDbArc
 50
266.3161166332
 51
273.6838833668
  0
LINE
  5
6AA
330
1F
100
AcDbEntity
  8
KONTUR
100
AcDbLine
 10
868.1239174212
 20
315.9980907376
 30
0.0
 11
868.1239174212
 21
315.5967274929
 31
0.0
  0
LINE
  5
6AB
330
1F
100
AcDbEntity
  8
KONTUR
100
AcDbLine
 10
868.1239174212
 20
315.5967274929
 30
0.0
 11
867.4962879504
 21
315.5967274929
 31
0.0
  0
ARC
  5
6AC
330
1F
100
AcDbEntity
  8
KONTUR
100
AcDbCircle
 10
868.8339174212
 20
325.4813947811
 30
0.0
 40
9.974763155082925
100
AcDbArc
 50
251.9395108358
 51
262.2933399246
  0
LINE
  5
6AD
330
1F
100
AcDbEntity
  8
KONTUR
100
AcDbLine
 10
865.7301489326
 20
315.9752588064
 30
0.0
 11
865.7415325132
 21
315.9980907376
 31
0.0
  0
ARC
  5
6AE
330
1F
100
AcDbEntity
  8
KONTUR
100
AcDbCircle
 10
329.2822245985
 20
319.9742159537
 30
0.0
 40
4.479207582209859
100
AcDbArc
 50
282.2338640877
 51
297.4162333992
  0
ARC
  5
6AF
330
1F
100
AcDbEntity
  8
KONTUR
100
AcDbCircle
 10
330.7958763303
 20
322.5819517472
 30
0.0
 40
6.606694559582785
100
AcDbArc
 50
265.2350604509
 51
274.7649395491
  0
ARC
  5
6B0
330
1F
100
AcDbEntity
  8
KONTUR
100
AcDbCircle
 10
328.1846140844
 20
319.9742159537
 30
0.0
 40
4.479207582209943
100
AcDbArc
 50
282.2338640877
 51
297.4162333992
  0
LINE
  5
6B1
330
1F
100
AcDbEntity
  8
KONTUR
100
AcDbLine
 10
329.1337691507
 20
315.5967274929
 30
0.0
 11
328.2504348775
 21
315.5967274929
 31
0.0
  0
ARC
  5
6B2
330
1F
100
AcDbEntity
  8
KONTUR
100
AcDbCircle
 10
329.339949261
 20
321.771154166
 30
0.0
 40
6.269815494393152
100
AcDbArc
 50
247.0390383821
 51
259.9928330471
  0
ARC
  5
6B3
330
1F
100
AcDbEntity
  8
KONTUR
100
AcDbCircle
 10
326.4436116545
 20
320.4298272675
 30
0.0
 40
4.454570850294719
100
AcDbArc
 50
264.1961733506
 51
275.8038266494
  0
ARC
  5
6B4
330
1F
100
AcDbEntity
  8
KONTUR
100
AcDbCircle
 10
328.4390324172
 20
321.771154166
 30
0.0
 40
6.269815494390326
100
AcDbArc
 50
247.0390383821
 51
259.9928330471
  0
LINE
  5
6B5
330
1F
100
AcDbEntity
  8
KONTUR
100
AcDbLine
 10
327.3495180338
 20
315.5967274929
 30
0.0
 11
327.3195355007
 21
315.5967274929
 31
0.0
  0
LINE
  5
6B6
330
1F
100
AcDbEntity
  8
KONTUR
100
AcDbLine
 10
329.1337691507
 20
315.5967274929
 30
0.0
 11
329.4173999649
 21
315.5967274929
 31
0.0
  0
ARC
  5
6B7
330
1F
100
AcDbEntity
  8
KONTUR
100
AcDbCircle
 10
328.3454255941
 20
321.6981106836
 30
0.0
 40
6.194837035115041
100
AcDbArc
 50
279.9648040097
 51
288.478485984
  0
LINE
  5
6B8
330
1F
100
AcDbEntity
  8
KONTUR
100
AcDbLine
 10
330.3482993417
 20
315.5967274929
 30
0.0
 11
330.2313796648
 21
315.5967274929
 31
0.0
  0
LWPOLYLINE
  5
6B9
330
1F
100
AcDbEntity
  8
KONTUR
100
AcDbPolyline
 90
        3
 70
   128
 43
0.0
 10
330.2036609227
 20
316.1428583203
 10
330.2123844061
 20
315.9739667298
 10
330.2313796648
 20
315.5967274929
  0
LINE
  5
6BA
330
1F
100
AcDbEntity
  8
KONTUR
100
AcDbLine
 10
821.9263023292
 20
315.9980907376
 30
0.0
 11
821.9376859098
 21
315.9752588064
 31
0.0
  0
ARC
  5
6BB
330
1F
100
AcDbEntity
  8
KONTUR
100
AcDbCircle
 10
818.8339174212
 20
325.4813947811
 30
0.0
 40
9.97476315508289
100
AcDbArc
 50
277.7066600754
 51
288.0604891642
  0
LINE
  5
6BC
330
1F
100
AcDbEntity
  8
KONTUR
100
AcDbLine
 10
820.171546892
 20
315.5967274929
 30
0.0
 11
819.5439174212
 21
315.5967274929
 31
0.0
  0
LINE
  5
6BD
330
1F
100
AcDbEntity
  8
KONTUR
100
AcDbLine
 10
819.5439174212
 20
315.5967274929
 30
0.0
 11
819.5439174212
 21
315.9980907376
 31
0.0
  0
ARC
  5
6BE
330
1F
100
AcDbEntity
  8
KONTUR
100
AcDbCircle
 10
818.8339174212
 20
327.025565667
 30
0.0
 40
11.05030783814015
100
AcDbArc
 50
266.3161166332
 51
273.6838833668
  0
LINE
  5
6BF
330
1F
100
AcDbEntity
  8
KONTUR
100
AcDbLine
 10
818.1239174212
 20
315.9980907376
 30
0.0
 11
818.1239174212
 21
315.5967274929
 31
0.0
  0
LINE
  5
6C0
330
1F
100
AcDbEntity
  8
KONTUR
100
AcDbLine
 10
818.1239174212
 20
315.5967274929
 30
0.0
 11
817.4962879504
 21
315.5967274929
 31
0.0
  0
ARC
  5
6C1
330
1F
100
AcDbEntity
  8
KONTUR
100
AcDbCircle
 10
818.8339174212
 20
325.4813947811
 30
0.0
 40
9.97476315508289
100
AcDbArc
 50
251.9395108358
 51
262.2933399246
  0
LINE
  5
6C2
330
1F
100
AcDbEntity
  8
KONTUR
100
AcDbLine
 10
815.7301489326
 20
315.9752588064
 30
0.0
 11
815.7415325132
 21
315.9980907376
 31
0.0
  0
LINE
  5
6C3
330
1F
100
AcDbEntity
  8
KONTUR
100
AcDbLine
 10
341.3339174212
 20
320.0813947811
 30
0.0
 11
341.3339174212
 21
322.0813947811
 31
0.0
  0
LINE
  5
6C4
330
1F
100
AcDbEntity
  8
KONTUR
100
AcDbLine
 10
266.3339174212
 20
320.0813947811
 30
0.0
 11
341.3339174212
 21
320.0813947811
 31
0.0
  0
LINE
  5
6C5
330
1F
100
AcDbEntity
  8
KONTUR
100
AcDbLine
 10
266.3339174212
 20
320.0813947811
 30
0.0
 11
266.3339174212
 21
322.0813947811
 31
0.0
  0
LINE
  5
6C6
330
1F
100
AcDbEntity
  8
KONTUR
100
AcDbLine
 10
266.3339174212
 20
322.0813947811
 30
0.0
 11
341.3339174212
 21
322.0813947811
 31
0.0
  0
LINE
  5
6C7
330
1F
100
AcDbEntity
  8
KONTUR
100
AcDbLine
 10
321.8339174212
 20
203.0813947811
 30
0.0
 11
285.8339174212
 21
203.0813947811
 31
0.0
  0
LINE
  5
6C8
330
1F
100
AcDbEntity
  8
KONTUR
100
AcDbLine
 10
283.8339174212
 20
203.0813947811
 30
0.0
 11
283.8339174212
 21
316.8211407432
 31
0.0
  0
LINE
  5
6C9
330
1F
100
AcDbEntity
  8
KONTUR
100
AcDbLine
 10
285.8339174212
 20
203.0813947811
 30
0.0
 11
283.8339174212
 21
203.0813947811
 31
0.0
  0
LINE
  5
6CA
330
1F
100
AcDbEntity
  8
KONTUR
100
AcDbLine
 10
323.8339174212
 20
203.0813947811
 30
0.0
 11
323.8339174212
 21
316.8211407432
 31
0.0
  0
LINE
  5
6CB
330
1F
100
AcDbEntity
  8
KONTUR
100
AcDbLine
 10
323.8339174212
 20
203.0813947811
 30
0.0
 11
321.8339174212
 21
203.0813947811
 31
0.0
  0
LINE
  5
6CC
330
1F
100
AcDbEntity
  8
KONTUR
100
AcDbLine
 10
881.3339174212
 20
320.0813947811
 30
0.0
 11
881.3339174212
 21
322.0813947811
 31
0.0
  0
LINE
  5
6CD
330
1F
100
AcDbEntity
  8
KONTUR
100
AcDbLine
 10
806.3339174212
 20
320.0813947811
 30
0.0
 11
881.3339174212
 21
320.0813947811
 31
0.0
  0
LINE
  5
6CE
330
1F
100
AcDbEntity
  8
KONTUR
100
AcDbLine
 10
806.3339174212
 20
320.0813947811
 30
0.0
 11
806.3339174212
 21
322.0813947811
 31
0.0
  0
LINE
  5
6CF
330
1F
100
AcDbEntity
  8
KONTUR
100
AcDbLine
 10
806.3339174212
 20
322.0813947811
 30
0.0
 11
881.3339174212
 21
322.0813947811
 31
0.0
  0
LINE
  5
6D0
330
1F
100
AcDbEntity
  8
KONTUR
100
AcDbLine
 10
823.8339174212
 20
203.0813947811
 30
0.0
 11
823.8339174212
 21
316.8211407432
 31
0.0
  0
LINE
  5
6D1
330
1F
100
AcDbEntity
  8
KONTUR
100
AcDbLine
 10
825.8339174212
 20
203.0813947811
 30
0.0
 11
823.8339174212
 21
203.0813947811
 31
0.0
  0
LINE
  5
6D2
330
1F
100
AcDbEntity
  8
KONTUR
100
AcDbLine
 10
863.8339174212
 20
203.0813947811
 30
0.0
 11
863.8339174212
 21
316.8211407432
 31
0.0
  0
LINE
  5
6D3
330
1F
100
AcDbEntity
  8
KONTUR
100
AcDbLine
 10
863.8339174212
 20
203.0813947811
 30
0.0
 11
861.8339174212
 21
203.0813947811
 31
0.0
  0
LINE
  5
6D4
330
1F
100
AcDbEntity
  8
KONTUR
100
AcDbLine
 10
861.8339174212
 20
203.0813947811
 30
0.0
 11
825.8339174212
 21
203.0813947811
 31
0.0
  0
LINE
  5
6D5
330
1F
100
AcDbEntity
  8
KONTUR
100
AcDbLine
 10
863.8339174212
 20
195.0813947811
 30
0.0
 11
863.8339174212
 21
203.0813947811
 31
0.0
  0
LINE
  5
6D6
330
1F
100
AcDbEntity
  8
KONTUR
100
AcDbLine
 10
863.8339174212
 20
195.0813947811
 30
0.0
 11
861.8339174212
 21
195.0813947811
 31
0.0
  0
LINE
  5
6D7
330
1F
100
AcDbEntity
  8
KONTUR
100
AcDbLine
 10
861.8339174212
 20
195.0813947811
 30
0.0
 11
825.8339174212
 21
195.0813947811
 31
0.0
  0
LINE
  5
6D8
330
1F
100
AcDbEntity
  8
KONTUR
100
AcDbLine
 10
823.8339174212
 20
195.0813947811
 30
0.0
 11
823.8339174212
 21
203.0813947811
 31
0.0
  0
LINE
  5
6D9
330
1F
100
AcDbEntity
  8
KONTUR
100
AcDbLine
 10
825.8339174212
 20
195.0813947811
 30
0.0
 11
823.8339174212
 21
195.0813947811
 31
0.0
  0
LINE
  5
6DA
330
1F
100
AcDbEntity
  8
KONTUR
100
AcDbLine
 10
323.8339174212
 20
195.0813947811
 30
0.0
 11
323.8339174212
 21
203.0813947811
 31
0.0
  0
LINE
  5
6DB
330
1F
100
AcDbEntity
  8
KONTUR
100
AcDbLine
 10
323.8339174212
 20
195.0813947811
 30
0.0
 11
321.8339174212
 21
195.0813947811
 31
0.0
  0
LINE
  5
6DC
330
1F
100
AcDbEntity
  8
KONTUR
100
AcDbLine
 10
283.8339174212
 20
195.0813947811
 30
0.0
 11
283.8339174212
 21
203.0813947811
 31
0.0
  0
LINE
  5
6DD
330
1F
100
AcDbEntity
  8
KONTUR
100
AcDbLine
 10
285.8339174212
 20
195.0813947811
 30
0.0
 11
283.8339174212
 21
195.0813947811
 31
0.0
  0
LINE
  5
6DE
330
1F
100
AcDbEntity
  8
KONTUR
100
AcDbLine
 10
321.8339174212
 20
195.0813947811
 30
0.0
 11
285.8339174212
 21
195.0813947811
 31
0.0
  0
LINE
  5
6DF
330
1F
100
AcDbEntity
  8
KONTUR
100
AcDbLine
 10
296.910045672
 20
183.5813947811
 30
0.0
 11
310.7577891704
 21
183.5813947811
 31
0.0
  0
ARC
  5
6E0
330
1F
100
AcDbEntity
  8
KONTUR
100
AcDbCircle
 10
303.8339174212
 20
170.3313947811
 30
0.0
 40
14.94999999999998
100
AcDbArc
 50
62.4103957885
 51
117.5896042115
  0
LINE
  5
6E1
330
1F
100
AcDbEntity
  8
KONTUR
100
AcDbLine
 10
296.910045672
 20
183.5813947811
 30
0.0
 11
296.910045672
 21
175.0313947811
 31
0.0
  0
LINE
  5
6E2
330
1F
100
AcDbEntity
  8
KONTUR
100
AcDbLine
 10
290.5839174212
 20
175.0313947811
 30
0.0
 11
296.910045672
 21
175.0313947811
 31
0.0
  0
LINE
  5
6E3
330
1F
100
AcDbEntity
  8
KONTUR
100
AcDbLine
 10
290.5839174212
 20
183.5813947811
 30
0.0
 11
290.5839174212
 21
175.0313947811
 31
0.0
  0
LINE
  5
6E4
330
1F
100
AcDbEntity
  8
KONTUR
100
AcDbLine
 10
290.5839174212
 20
183.5813947811
 30
0.0
 11
288.8839174212
 21
185.2813947811
 31
0.0
  0
LINE
  5
6E5
330
1F
100
AcDbEntity
  8
KONTUR
100
AcDbLine
 10
318.7839174212
 20
185.2813947811
 30
0.0
 11
317.0839174212
 21
183.5813947811
 31
0.0
  0
LINE
  5
6E6
330
1F
100
AcDbEntity
  8
KONTUR
100
AcDbLine
 10
317.0839174212
 20
183.5813947811
 30
0.0
 11
317.0839174212
 21
175.0313947811
 31
0.0
  0
LINE
  5
6E7
330
1F
100
AcDbEntity
  8
KONTUR
100
AcDbLine
 10
310.7577891704
 20
175.0313947811
 30
0.0
 11
317.0839174212
 21
175.0313947811
 31
0.0
  0
LINE
  5
6E8
330
1F
100
AcDbEntity
  8
KONTUR
100
AcDbLine
 10
310.7577891704
 20
183.5813947811
 30
0.0
 11
310.7577891704
 21
175.0313947811
 31
0.0
  0
ARC
  5
6E9
330
1F
100
AcDbEntity
  8
KONTUR
100
AcDbCircle
 10
303.8339174212
 20
188.9023839926
 30
0.0
 40
15.50304298210077
100
AcDbArc
 50
243.4733693734
 51
296.5266306266
  0
LINE
  5
6EA
330
1F
100
AcDbEntity
  8
KONTUR
100
AcDbLine
 10
290.5839174212
 20
175.0313947811
 30
0.0
 11
290.5839174212
 21
173.3317918384
 31
0.0
  0
LINE
  5
6EB
330
1F
100
AcDbEntity
  8
KONTUR
100
AcDbLine
 10
317.0839174212
 20
175.0313947811
 30
0.0
 11
317.0839174212
 21
173.3317918384
 31
0.0
  0
LINE
  5
6EC
330
1F
100
AcDbEntity
  8
KONTUR
100
AcDbLine
 10
315.8339174212
 20
172.0813947811
 30
0.0
 11
291.8339174212
 21
172.0813947811
 31
0.0
  0
LINE
  5
6ED
330
1F
100
AcDbEntity
  8
KONTUR
100
AcDbLine
 10
836.910045672
 20
183.5813947811
 30
0.0
 11
850.7577891704
 21
183.5813947811
 31
0.0
  0
ARC
  5
6EE
330
1F
100
AcDbEntity
  8
KONTUR
100
AcDbCircle
 10
843.8339174212
 20
170.3313947811
 30
0.0
 40
14.95000000000003
100
AcDbArc
 50
62.4103957885
 51
117.5896042115
  0
LINE
  5
6EF
330
1F
100
AcDbEntity
  8
KONTUR
100
AcDbLine
 10
836.910045672
 20
183.5813947811
 30
0.0
 11
836.910045672
 21
175.0313947811
 31
0.0
  0
LINE
  5
6F0
330
1F
100
AcDbEntity
  8
KONTUR
100
AcDbLine
 10
830.5839174212
 20
175.0313947811
 30
0.0
 11
836.910045672
 21
175.0313947811
 31
0.0
  0
LINE
  5
6F1
330
1F
100
AcDbEntity
  8
KONTUR
100
AcDbLine
 10
830.5839174212
 20
183.5813947811
 30
0.0
 11
830.5839174212
 21
175.0313947811
 31
0.0
  0
LINE
  5
6F2
330
1F
100
AcDbEntity
  8
KONTUR
100
AcDbLine
 10
830.5839174212
 20
183.5813947811
 30
0.0
 11
828.8839174212
 21
185.2813947811
 31
0.0
  0
LINE
  5
6F3
330
1F
100
AcDbEntity
  8
KONTUR
100
AcDbLine
 10
858.7839174212
 20
185.2813947811
 30
0.0
 11
857.0839174212
 21
183.5813947811
 31
0.0
  0
LINE
  5
6F4
330
1F
100
AcDbEntity
  8
KONTUR
100
AcDbLine
 10
857.0839174212
 20
183.5813947811
 30
0.0
 11
857.0839174212
 21
175.0313947811
 31
0.0
  0
LINE
  5
6F5
330
1F
100
AcDbEntity
  8
KONTUR
100
AcDbLine
 10
850.7577891704
 20
175.0313947811
 30
0.0
 11
857.0839174212
 21
175.0313947811
 31
0.0
  0
LINE
  5
6F6
330
1F
100
AcDbEntity
  8
KONTUR
100
AcDbLine
 10
850.7577891704
 20
183.5813947811
 30
0.0
 11
850.7577891704
 21
175.0313947811
 31
0.0
  0
LINE
  5
6F7
330
1F
100
AcDbEntity
  8
KONTUR
100
AcDbLine
 10
830.5839174212
 20
175.0313947811
 30
0.0
 11
830.5839174212
 21
173.3317918384
 31
0.0
  0
ARC
  5
6F8
330
1F
100
AcDbEntity
  8
KONTUR
100
AcDbCircle
 10
843.8339174212
 20
188.9023839926
 30
0.0
 40
15.50304298210112
100
AcDbArc
 50
243.4733693734
 51
296.5266306266
  0
LINE
  5
6F9
330
1F
100
AcDbEntity
  8
KONTUR
100
AcDbLine
 10
857.0839174212
 20
175.0313947811
 30
0.0
 11
857.0839174212
 21
173.3317918384
 31
0.0
  0
LINE
  5
6FA
330
1F
100
AcDbEntity
  8
KONTUR
100
AcDbLine
 10
855.8339174212
 20
172.0813947811
 30
0.0
 11
831.8339174212
 21
172.0813947811
 31
0.0
  0
LINE
  5
6FB
330
1F
100
AcDbEntity
  8
KONTUR
100
AcDbLine
 10
248.8434005773
 20
1848.8789826928
 30
0.0
 11
248.940988489
 21
1848.7813947811
 31
0.0
  0
LWPOLYLINE
  5
6FC
330
1F
100
AcDbEntity
  8
KONTUR
100
AcDbPolyline
 90
        9
 70
   128
 43
0.0
 10
247.3434442376
 20
1850.3789391801
 10
247.3742090872
 20
1850.3481743017
 10
247.4608887286
 20
1850.2614946325
 10
247.6001842904
 20
1850.1221990452
 10
247.7867944333
 20
1849.9355888799
 10
248.0136171102
 20
1849.7087661847
 10
248.272019857
 20
1849.4503634243
 10
248.5521683287
 20
1849.1702149442
 10
248.8434005773
 20
1848.8789826928
  0
LINE
  5
6FD
330
1F
100
AcDbEntity
  8
KONTUR
100
AcDbLine
 10
247.3434442376
 20
1850.3789391801
 30
0.0
 11
573.2245663402
 21
1850.3789391801
 31
0.0
  0
LINE
  5
6FE
330
1F
100
AcDbEntity
  8
KONTUR
100
AcDbLine
 10
574.4432685022
 20
1850.3789391801
 30
0.0
 11
629.8339174212
 21
1850.3789391801
 31
0.0
  0
LINE
  5
6FF
330
1F
100
AcDbEntity
  8
KONTUR
100
AcDbLine
 10
637.8339174212
 20
1850.3789391801
 30
0.0
 11
831.3339174212
 21
1850.3789391801
 31
0.0
  0
LINE
  5
700
330
1F
100
AcDbEntity
  8
KONTUR
100
AcDbLine
 10
880.3315060576
 20
1107.4813947811
 30
0.0
 11
880.3315060576
 21
1111.4813947811
 31
0.0
  0
LINE
  5
701
330
1F
100
AcDbEntity
  8
KONTUR
100
AcDbLine
 10
880.3315060576
 20
1116.4813947811
 30
0.0
 11
880.3315060576
 21
1119.4813947811
 31
0.0
  0
LINE
  5
702
330
1F
100
AcDbEntity
  8
KONTUR
100
AcDbLine
 10
880.3315060026
 20
1119.4813947811
 30
0.0
 11
880.3315060026
 21
1116.4813947811
 31
0.0
  0
LINE
  5
703
330
1F
100
AcDbEntity
  8
KONTUR
100
AcDbLine
 10
880.3315060026
 20
1111.4813947811
 30
0.0
 11
880.3315060026
 21
1107.4813947811
 31
0.0
  0
LINE
  5
704
330
1F
100
AcDbEntity
  8
KONTUR
100
AcDbLine
 10
248.9268463534
 20
1848.7813947811
 30
0.0
 11
248.8363295095
 21
1848.871911625
 31
0.0
  0
LINE
  5
705
330
1F
100
AcDbEntity
  8
KONTUR
100
AcDbLine
 10
267.3363287849
 20
1104.9813947811
 30
0.0
 11
267.3363287849
 21
1121.9813947811
 31
0.0
  0
LWPOLYLINE
  5
706
330
1F
100
AcDbEntity
  8
KONTUR
100
AcDbPolyline
 90
        9
 70
   128
 43
0.0
 10
248.8363295095
 20
1848.871911625
 10
248.5450972581
 20
1849.1631438792
 10
248.264948778
 20
1849.4432923677
 10
248.0065460176
 20
1849.7016951417
 10
247.7797233224
 20
1849.9285178553
 10
247.5931131571
 20
1850.1151280429
 10
247.4538175698
 20
1850.2544236558
 10
247.3671379006
 20
1850.3411033527
 10
247.3363730222
 20
1850.37186826
  0
LINE
  5
707
330
1F
100
AcDbEntity
  8
KONTUR
100
AcDbLine
 10
247.6237558118
 20
1850.0844854883
 30
0.0
 11
248.4363117995
 21
1849.2719294837
 31
0.0
  0
LINE
  5
708
330
1F
100
AcDbEntity
  8
KONTUR
100
AcDbLine
 10
248.4363117995
 20
1849.2719294837
 30
0.0
 11
248.9268465022
 21
1848.7813947811
 31
0.0
  0
LINE
  5
709
330
1F
100
AcDbEntity
  8
KONTUR
100
AcDbLine
 10
247.3363730222
 20
377.3979926653
 30
0.0
 11
247.3363730222
 21
378.1813947811
 31
0.0
  0
LINE
  5
70A
330
1F
100
AcDbEntity
  8
KONTUR
100
AcDbLine
 10
247.3363730222
 20
1104.9813947811
 30
0.0
 11
247.3363730222
 21
1121.9813947811
 31
0.0
  0
LINE
  5
70B
330
1F
100
AcDbEntity
  8
KONTUR
100
AcDbLine
 10
247.3363730222
 20
1848.7813947811
 30
0.0
 11
247.3363730222
 21
1850.37186826
 31
0.0
  0
LWPOLYLINE
  5
70C
330
1F
100
AcDbEntity
  8
KONTUR
100
AcDbPolyline
 90
        7
 70
   128
 43
0.0
 10
247.3363730222
 20
377.3979926653
 10
247.3671379006
 20
377.4287575149
 10
247.4538175698
 20
377.5154371563
 10
247.5931131571
 20
377.6547327181
 10
247.7797233224
 20
377.841342861
 10
248.0065460176
 20
378.0681655379
 10
248.1197752675
 20
378.1813947811
  0
LINE
  5
70D
330
1F
100
AcDbEntity
  8
KONTUR
100
AcDbLine
 10
831.3339174212
 20
377.383850382
 30
0.0
 11
584.8201119712
 21
377.383850382
 31
0.0
  0
LINE
  5
70E
330
1F
100
AcDbEntity
  8
KONTUR
100
AcDbLine
 10
562.8477228712
 20
377.383850382
 30
0.0
 11
247.3505150102
 21
377.383850382
 31
0.0
  0
LWPOLYLINE
  5
70F
330
1F
100
AcDbEntity
  8
KONTUR
100
AcDbPolyline
 90
        7
 70
   128
 43
0.0
 10
248.1480595395
 20
378.1813947811
 10
248.0206881284
 20
378.0540233775
 10
247.7938654148
 20
377.8272006822
 10
247.6072552272
 20
377.6405905169
 10
247.4679596143
 20
377.5012949296
 10
247.3812799174
 20
377.4146152605
 10
247.3505150102
 20
377.383850382
  0
LINE
  5
710
330
1F
100
AcDbEntity
  8
KONTUR
100
AcDbLine
 10
247.6378977818
 20
377.6712331717
 30
0.0
 11
248.2567528101
 21
378.2900881835
 31
0.0
  0
LINE
  5
711
330
1F
100
AcDbEntity
  8
KONTUR
100
AcDbLine
 10
267.3363288398
 20
1104.9813947811
 30
0.0
 11
267.3363288398
 21
1121.9813947811
 31
0.0
  0
LINE
  5
712
330
1F
100
AcDbEntity
  8
KONTUR
100
AcDbLine
 10
257.3339174212
 20
1854.3813947811
 30
0.0
 11
257.5339174212
 21
1854.3813947811
 31
0.0
  0
LINE
  5
713
330
1F
100
AcDbEntity
  8
KONTUR
100
AcDbLine
 10
257.5339174212
 20
1863.8813947811
 30
0.0
 11
257.5339174212
 21
1850.3789391801
 31
0.0
  0
LINE
  5
714
330
1F
100
AcDbEntity
  8
KONTUR
100
AcDbLine
 10
933.4339174212
 20
1884.9813947811
 30
0.0
 11
928.8339174212
 21
1884.9813947811
 31
0.0
  0
LINE
  5
715
330
1F
100
AcDbEntity
  8
KONTUR
100
AcDbLine
 10
933.4339174212
 20
1884.9813947811
 30
0.0
 11
933.4339174212
 21
1884.0813947811
 31
0.0
  0
LINE
  5
716
330
1F
100
AcDbEntity
  8
KONTUR
100
AcDbLine
 10
933.4339174212
 20
323.2813947811
 30
0.0
 11
933.4339174212
 21
322.3813947811
 31
0.0
  0
LINE
  5
717
330
1F
100
AcDbEntity
  8
KONTUR
100
AcDbLine
 10
892.8339174212
 20
322.3813947811
 30
0.0
 11
933.4339174212
 21
322.3813947811
 31
0.0
  0
ARC
  5
718
330
1F
100
AcDbEntity
  8
KONTUR
100
AcDbCircle
 10
892.8339174212
 20
324.8813947811
 30
0.0
 40
2.5
100
AcDbArc
 50
180.0
 51
270.0
  0
LINE
  5
719
330
1F
100
AcDbEntity
  8
KONTUR
100
AcDbLine
 10
890.3339174212
 20
330.681394781
 30
0.0
 11
890.3339174212
 21
324.8813947811
 31
0.0
  0
LINE
  5
71A
330
1F
100
AcDbEntity
  8
KONTUR
100
AcDbLine
 10
934.3339174212
 20
1884.0813947811
 30
0.0
 11
934.3339174212
 21
323.2813947811
 31
0.0
  0
LINE
  5
71B
330
1F
100
AcDbEntity
  8
KONTUR
100
AcDbLine
 10
934.3339174212
 20
1884.0813947811
 30
0.0
 11
933.4339174212
 21
1884.0813947811
 31
0.0
  0
LINE
  5
71C
330
1F
100
AcDbEntity
  8
KONTUR
100
AcDbLine
 10
933.4339174212
 20
323.2813947811
 30
0.0
 11
934.3339174212
 21
323.2813947811
 31
0.0
  0
ARC
  5
71D
330
1F
100
AcDbEntity
  8
KONTUR
100
AcDbCircle
 10
933.4339174212
 20
323.2813947811
 30
0.0
 40
0.8999999999999204
100
AcDbArc
 50
270.0
 51
0.0
  0
ARC
  5
71E
330
1F
100
AcDbEntity
  8
KONTUR
100
AcDbCircle
 10
933.4339174212
 20
1884.0813947811
 30
0.0
 40
0.900000000000091
100
AcDbArc
 50
0.0
 51
90.0
  0
LINE
  5
71F
330
1F
100
AcDbEntity
  8
KONTUR
100
AcDbLine
 10
257.3339174212
 20
324.8813947811
 30
0.0
 11
257.3339174212
 21
377.383850382
 31
0.0
  0
ARC
  5
720
330
1F
100
AcDbEntity
  8
KONTUR
100
AcDbCircle
 10
254.8339174212
 20
324.8813947811
 30
0.0
 40
2.500000000000028
100
AcDbArc
 50
270.0
 51
0.0
  0
LINE
  5
721
330
1F
100
AcDbEntity
  8
KONTUR
100
AcDbLine
 10
214.2339174212
 20
322.3813947811
 30
0.0
 11
254.8339174212
 21
322.3813947811
 31
0.0
  0
LINE
  5
722
330
1F
100
AcDbEntity
  8
KONTUR
100
AcDbLine
 10
214.2339174212
 20
322.3813947811
 30
0.0
 11
214.2339174212
 21
323.2813947811
 31
0.0
  0
LINE
  5
723
330
1F
100
AcDbEntity
  8
KONTUR
100
AcDbLine
 10
214.2339174212
 20
1884.0813947811
 30
0.0
 11
214.2339174212
 21
1884.9813947811
 31
0.0
  0
LINE
  5
724
330
1F
100
AcDbEntity
  8
KONTUR
100
AcDbLine
 10
257.3339174212
 20
1850.3789391801
 30
0.0
 11
257.3339174212
 21
1863.8813947811
 31
0.0
  0
LINE
  5
725
330
1F
100
AcDbEntity
  8
KONTUR
100
AcDbLine
 10
218.8339174212
 20
1884.9813947811
 30
0.0
 11
214.2339174212
 21
1884.9813947811
 31
0.0
  0
LINE
  5
726
330
1F
100
AcDbEntity
  8
KONTUR
100
AcDbLine
 10
213.3339174212
 20
323.2813947811
 30
0.0
 11
214.2339174212
 21
323.2813947811
 31
0.0
  0
LINE
  5
727
330
1F
100
AcDbEntity
  8
KONTUR
100
AcDbLine
 10
213.3339174212
 20
323.2813947811
 30
0.0
 11
213.3339174212
 21
1884.0813947811
 31
0.0
  0
LINE
  5
728
330
1F
100
AcDbEntity
  8
KONTUR
100
AcDbLine
 10
214.2339174212
 20
1884.0813947811
 30
0.0
 11
213.3339174212
 21
1884.0813947811
 31
0.0
  0
ARC
  5
729
330
1F
100
AcDbEntity
  8
KONTUR
100
AcDbCircle
 10
214.2339174212
 20
1884.0813947811
 30
0.0
 40
0.9000000000001194
100
AcDbArc
 50
90.0
 51
179.9999999999
  0
ARC
  5
72A
330
1F
100
AcDbEntity
  8
KONTUR
100
AcDbCircle
 10
214.2339174212
 20
323.2813947811
 30
0.0
 40
0.900000000000091
100
AcDbArc
 50
180.0
 51
270.0
  0
LINE
  5
72B
330
1F
100
AcDbEntity
  8
KONTUR
100
AcDbLine
 10
890.1339174212
 20
323.2813947811
 30
0.0
 11
890.1339174212
 21
330.681394781
 31
0.0
  0
LINE
  5
72C
330
1F
100
AcDbEntity
  8
KONTUR
100
AcDbLine
 10
257.5339174212
 20
377.383850382
 30
0.0
 11
257.5339174212
 21
323.2813947811
 31
0.0
  0
LINE
  5
72D
330
1F
100
AcDbEntity
  8
KONTUR
100
AcDbLine
 10
890.1339174212
 20
322.4328666437
 30
0.0
 11
890.1339174212
 21
323.2813947811
 31
0.0
  0
LINE
  5
72E
330
1F
100
AcDbEntity
  8
KONTUR
100
AcDbLine
 10
890.1339174212
 20
322.3813947811
 30
0.0
 11
257.5339174212
 21
322.3813947811
 31
0.0
  0
LINE
  5
72F
330
1F
100
AcDbEntity
  8
KONTUR
100
AcDbLine
 10
257.5339174212
 20
323.2813947811
 30
0.0
 11
257.5339174212
 21
322.4328666437
 31
0.0
  0
LINE
  5
730
330
1F
100
AcDbEntity
  8
KONTUR
100
AcDbLine
 10
257.5339174212
 20
322.4328666437
 30
0.0
 11
257.5339174212
 21
322.3813947811
 31
0.0
  0
LINE
  5
731
330
1F
100
AcDbEntity
  8
KONTUR
100
AcDbLine
 10
257.5339174212
 20
322.3813947811
 30
0.0
 11
254.8339174212
 21
322.3813947811
 31
0.0
  0
LINE
  5
732
330
1F
100
AcDbEntity
  8
KONTUR
100
AcDbLine
 10
257.5339174212
 20
322.9813947811
 30
0.0
 11
256.4587251021
 21
322.9813947811
 31
0.0
  0
LINE
  5
733
330
1F
100
AcDbEntity
  8
KONTUR
100
AcDbLine
 10
890.1339174212
 20
322.4328666437
 30
0.0
 11
890.1339174212
 21
322.3813947811
 31
0.0
  0
LINE
  5
734
330
1F
100
AcDbEntity
  8
KONTUR
100
AcDbLine
 10
892.8339174212
 20
322.3813947811
 30
0.0
 11
890.1339174212
 21
322.3813947811
 31
0.0
  0
LINE
  5
735
330
1F
100
AcDbEntity
  8
KONTUR
100
AcDbLine
 10
891.2091097403
 20
322.9813947811
 30
0.0
 11
890.1339174212
 21
322.9813947811
 31
0.0
  0
LINE
  5
736
330
1F
100
AcDbEntity
  8
KONTUR
100
AcDbLine
 10
933.7339174212
 20
1884.3813947811
 30
0.0
 11
933.7339174212
 21
1884.0813947811
 31
0.0
  0
LINE
  5
737
330
1F
100
AcDbEntity
  8
KONTUR
100
AcDbLine
 10
933.7339174212
 20
323.2813947811
 30
0.0
 11
933.7339174212
 21
322.9813947811
 31
0.0
  0
LINE
  5
738
330
1F
100
AcDbEntity
  8
KONTUR
100
AcDbLine
 10
933.4339174212
 20
1884.3813947811
 30
0.0
 11
933.7339174212
 21
1884.3813947811
 31
0.0
  0
LINE
  5
739
330
1F
100
AcDbEntity
  8
KONTUR
100
AcDbLine
 10
933.4339174212
 20
322.9813947811
 30
0.0
 11
933.7339174212
 21
322.9813947811
 31
0.0
  0
LINE
  5
73A
330
1F
100
AcDbEntity
  8
KONTUR
100
AcDbLine
 10
213.9339174212
 20
1884.3813947811
 30
0.0
 11
213.9339174212
 21
1884.0813947811
 31
0.0
  0
LINE
  5
73B
330
1F
100
AcDbEntity
  8
KONTUR
100
AcDbLine
 10
213.9339174212
 20
323.2813947811
 30
0.0
 11
213.9339174212
 21
322.9813947811
 31
0.0
  0
LINE
  5
73C
330
1F
100
AcDbEntity
  8
KONTUR
100
AcDbLine
 10
213.9339174212
 20
1884.3813947811
 30
0.0
 11
214.2339174212
 21
1884.3813947811
 31
0.0
  0
LINE
  5
73D
330
1F
100
AcDbEntity
  8
KONTUR
100
AcDbLine
 10
213.9339174212
 20
322.9813947811
 30
0.0
 11
214.2339174212
 21
322.9813947811
 31
0.0
  0
LINE
  5
73E
330
1F
100
AcDbEntity
  8
0
  6
Continuous
 62
     7
370
    18
100
AcDbLine
 10
906.8339174212
 20
2221.9813947811
 30
0.0
 11
906.8339174212
 21
2223.1813947811
 31
0.0
  0
LINE
  5
73F
330
1F
100
AcDbEntity
  8
0
  6
Continuous
 62
     7
370
    18
100
AcDbLine
 10
876.8339174212
 20
2223.1813947811
 30
0.0
 11
876.8339174212
 21
2221.9813947811
 31
0.0
  0
LINE
  5
740
330
1F
100
AcDbEntity
  8
0
  6
Continuous
 62
     7
370
    18
100
AcDbLine
 10
911.8339174212
 20
2224.7313947811
 30
0.0
 11
902.8339174212
 21
2224.7313947811
 31
0.0
  0
LINE
  5
741
330
1F
100
AcDbEntity
  8
0
  6
Continuous
 62
     7
370
    18
100
AcDbLine
 10
880.8339174212
 20
2224.7313947811
 30
0.0
 11
871.8339174212
 21
2224.7313947811
 31
0.0
  0
LINE
  5
742
330
1F
100
AcDbEntity
  8
0
  6
Continuous
 62
     7
370
    18
100
AcDbLine
 10
240.8339174212
 20
2223.1813947811
 30
0.0
 11
240.8339174212
 21
2221.9813947811
 31
0.0
  0
LINE
  5
743
330
1F
100
AcDbEntity
  8
0
  6
Continuous
 62
     7
370
    18
100
AcDbLine
 10
270.8339174212
 20
2221.9813947811
 30
0.0
 11
270.8339174212
 21
2223.1813947811
 31
0.0
  0
LINE
  5
744
330
1F
100
AcDbEntity
  8
0
  6
Continuous
 62
     7
370
    18
100
AcDbLine
 10
275.8339174212
 20
2224.7313947811
 30
0.0
 11
266.8339174212
 21
2224.7313947811
 31
0.0
  0
LINE
  5
745
330
1F
100
AcDbEntity
  8
0
  6
Continuous
 62
     7
370
    18
100
AcDbLine
 10
244.8339174212
 20
2224.7313947811
 30
0.0
 11
235.8339174212
 21
2224.7313947811
 31
0.0
  0
LINE
  5
746
330
1F
100
AcDbEntity
  8
0
  6
Continuous
 62
     7
370
    18
100
AcDbLine
 10
276.8339174212
 20
2222.7313947811
 30
0.0
 11
276.8339174212
 21
2226.7313947811
 31
0.0
  0
LINE
  5
747
330
1F
100
AcDbEntity
  8
0
  6
Continuous
 62
     7
370
    18
100
AcDbLine
 10
912.8339174212
 20
2222.7313947811
 30
0.0
 11
912.8339174212
 21
2226.7313947811
 31
0.0
  0
LINE
  5
748
330
1F
100
AcDbEntity
  8
0
  6
Continuous
 62
     7
370
    18
100
AcDbLine
 10
870.8339174212
 20
2224.7313947811
 30
0.0
 11
870.8339174212
 21
2222.7313947811
 31
0.0
  0
LINE
  5
749
330
1F
100
AcDbEntity
  8
0
  6
Continuous
 62
     7
370
    18
100
AcDbLine
 10
870.8339174212
 20
2226.7313947811
 30
0.0
 11
870.8339174212
 21
2224.7313947811
 31
0.0
  0
LINE
  5
74A
330
1F
100
AcDbEntity
  8
0
  6
Continuous
 62
     7
370
    18
100
AcDbLine
 10
234.8339174212
 20
2224.7313947811
 30
0.0
 11
234.8339174212
 21
2222.7313947811
 31
0.0
  0
LINE
  5
74B
330
1F
100
AcDbEntity
  8
0
  6
Continuous
 62
     7
370
    18
100
AcDbLine
 10
234.8339174212
 20
2226.7313947811
 30
0.0
 11
234.8339174212
 21
2224.7313947811
 31
0.0
  0
LINE
  5
74C
330
1F
100
AcDbEntity
  8
0
  6
Continuous
 62
     7
370
    18
100
AcDbLine
 10
664.8339174212
 20
1859.8813947811
 30
0.0
 11
664.8339174212
 21
1863.8813947811
 31
0.0
  0
LINE
  5
74D
330
1F
100
AcDbEntity
  8
0
  6
Continuous
 62
     7
370
    18
100
AcDbLine
 10
652.8339174212
 20
1859.8813947811
 30
0.0
 11
664.8339174212
 21
1859.8813947811
 31
0.0
  0
LINE
  5
74E
330
1F
100
AcDbEntity
  8
0
  6
Continuous
 62
     7
370
    18
100
AcDbLine
 10
652.8339174212
 20
1863.8813947811
 30
0.0
 11
652.8339174212
 21
1859.8813947811
 31
0.0
  0
LINE
  5
74F
330
1F
100
AcDbEntity
  8
0
  6
Continuous
 62
     7
370
    18
100
AcDbLine
 10
651.8339174212
 20
1859.8813947811
 30
0.0
 11
652.8339174212
 21
1859.8813947811
 31
0.0
  0
LINE
  5
750
330
1F
100
AcDbEntity
  8
0
  6
Continuous
 62
     7
370
    18
100
AcDbLine
 10
664.8339174212
 20
1859.8813947811
 30
0.0
 11
665.8339174212
 21
1859.8813947811
 31
0.0
  0
LINE
  5
751
330
1F
100
AcDbEntity
  8
0
  6
Continuous
 62
     7
370
    18
100
AcDbLine
 10
652.8339174212
 20
1858.8813947811
 30
0.0
 11
652.8339174212
 21
1859.8813947811
 31
0.0
  0
LINE
  5
752
330
1F
100
AcDbEntity
  8
0
  6
Continuous
 62
     7
370
    18
100
AcDbLine
 10
664.8339174212
 20
1858.8813947811
 30
0.0
 11
664.8339174212
 21
1859.8813947811
 31
0.0
  0
LINE
  5
753
330
1F
100
AcDbEntity
  8
0
  6
Continuous
 62
     7
370
    18
100
AcDbLine
 10
626.8339174212
 20
1859.8813947811
 30
0.0
 11
627.8339174212
 21
1859.8813947811
 31
0.0
  0
LINE
  5
754
330
1F
100
AcDbEntity
  8
0
  6
Continuous
 62
     7
370
    18
100
AcDbLine
 10
627.8339174212
 20
1858.8813947811
 30
0.0
 11
627.8339174212
 21
1859.8813947811
 31
0.0
  0
LINE
  5
755
330
1F
100
AcDbEntity
  8
0
  6
Continuous
 62
     7
370
    18
100
AcDbLine
 10
639.8339174212
 20
1858.8813947811
 30
0.0
 11
639.8339174212
 21
1859.8813947811
 31
0.0
  0
LINE
  5
756
330
1F
100
AcDbEntity
  8
0
  6
Continuous
 62
     7
370
    18
100
AcDbLine
 10
639.8339174212
 20
1859.8813947811
 30
0.0
 11
640.8339174212
 21
1859.8813947811
 31
0.0
  0
LINE
  5
757
330
1F
100
AcDbEntity
  8
0
  6
Continuous
 62
     7
370
    18
100
AcDbLine
 10
639.8339174212
 20
1859.8813947811
 30
0.0
 11
639.8339174212
 21
1863.8813947811
 31
0.0
  0
LINE
  5
758
330
1F
100
AcDbEntity
  8
0
  6
Continuous
 62
     7
370
    18
100
AcDbLine
 10
627.8339174212
 20
1859.8813947811
 30
0.0
 11
639.8339174212
 21
1859.8813947811
 31
0.0
  0
LINE
  5
759
330
1F
100
AcDbEntity
  8
0
  6
Continuous
 62
     7
370
    18
100
AcDbLine
 10
627.8339174212
 20
1863.8813947811
 30
0.0
 11
627.8339174212
 21
1859.8813947811
 31
0.0
  0
LINE
  5
75A
330
1F
100
AcDbEntity
  8
0
  6
Continuous
 62
     7
370
    18
100
AcDbLine
 10
474.8339174212
 20
1863.3813947811
 30
0.0
 11
505.4839174212
 21
1863.3813947811
 31
0.0
  0
LINE
  5
75B
330
1F
100
AcDbEntity
  8
0
  6
Continuous
 62
     7
370
    18
100
AcDbLine
 10
444.1839174212
 20
1863.3813947811
 30
0.0
 11
474.8339174212
 21
1863.3813947811
 31
0.0
  0
LINE
  5
75C
330
1F
100
AcDbEntity
  8
0
  6
Continuous
 62
     7
370
    18
100
AcDbLine
 10
237.2376713233
 20
1865.0813947811
 30
0.0
 11
910.4301635191
 21
1865.0813947811
 31
0.0
  0
LINE
  5
75D
330
1F
100
AcDbEntity
  8
0
  6
Continuous
 62
     7
370
    18
100
AcDbLine
 10
236.8309736961
 20
1865.0813947811
 30
0.0
 11
236.8309736961
 21
2220.7813947811
 31
0.0
  0
LINE
  5
75E
330
1F
100
AcDbEntity
  8
0
  6
Continuous
 62
     7
370
    18
100
AcDbLine
 10
910.4301635191
 20
2220.7813947811
 30
0.0
 11
237.2376713233
 21
2220.7813947811
 31
0.0
  0
LINE
  5
75F
330
1F
100
AcDbEntity
  8
0
  6
Continuous
 62
     7
370
    18
100
AcDbLine
 10
910.8368611464
 20
1865.0813947811
 30
0.0
 11
910.8368611464
 21
2220.7813947811
 31
0.0
  0
LINE
  5
760
330
1F
100
AcDbEntity
  8
0
  6
Continuous
 62
     7
370
    18
100
AcDbLine
 10
911.6853892838
 20
1865.0813947811
 30
0.0
 11
911.6853892838
 21
2220.7813947811
 31
0.0
  0
LINE
  5
761
330
1F
100
AcDbEntity
  8
0
  6
Continuous
 62
     7
370
    18
100
AcDbLine
 10
235.9824455586
 20
1865.0813947811
 30
0.0
 11
235.9824455586
 21
2220.7813947811
 31
0.0
  0
LINE
  5
762
330
1F
100
AcDbEntity
  8
0
  6
Continuous
 62
     7
370
    18
100
AcDbLine
 10
911.9374064894
 20
1865.0813947811
 30
0.0
 11
928.2345877532
 21
1865.0813947811
 31
0.0
  0
LINE
  5
763
330
1F
100
AcDbEntity
  8
0
  6
Continuous
 62
     7
370
    18
100
AcDbLine
 10
928.2485358703
 20
2220.7813947811
 30
0.0
 11
911.9374064894
 21
2220.7813947811
 31
0.0
  0
LINE
  5
764
330
1F
100
AcDbEntity
  8
0
  6
Continuous
 62
     7
370
    18
100
AcDbLine
 10
928.4824455586
 20
1865.0813947811
 30
0.0
 11
928.4824455586
 21
2220.7813947811
 31
0.0
  0
LINE
  5
765
330
1F
100
AcDbEntity
  8
0
  6
Continuous
 62
     7
370
    18
100
AcDbLine
 10
219.4332470892
 20
1865.0813947811
 30
0.0
 11
235.730428353
 21
1865.0813947811
 31
0.0
  0
LINE
  5
766
330
1F
100
AcDbEntity
  8
0
  6
Continuous
 62
     7
370
    18
100
AcDbLine
 10
219.1853892838
 20
1865.0813947811
 30
0.0
 11
219.1853892838
 21
2220.7813947811
 31
0.0
  0
LINE
  5
767
330
1F
100
AcDbEntity
  8
0
  6
Continuous
 62
     7
370
    18
100
AcDbLine
 10
235.730428353
 20
2220.7813947811
 30
0.0
 11
219.4192989721
 21
2220.7813947811
 31
0.0
  0
LINE
  5
768
330
1F
100
AcDbEntity
  8
0
  6
Continuous
 62
     7
370
    18
100
AcDbLine
 10
933.1339174212
 20
2220.7813947811
 30
0.0
 11
928.8339174212
 21
2220.7813947811
 31
0.0
  0
LINE
  5
769
330
1F
100
AcDbEntity
  8
0
  6
Continuous
 62
     7
370
    18
100
AcDbLine
 10
933.1339174212
 20
1886.1813947811
 30
0.0
 11
933.1339174212
 21
2220.7813947811
 31
0.0
  0
LINE
  5
76A
330
1F
100
AcDbEntity
  8
0
  6
Continuous
 62
     7
370
    18
100
AcDbLine
 10
928.8339174212
 20
1886.1813947811
 30
0.0
 11
933.1339174212
 21
1886.1813947811
 31
0.0
  0
LINE
  5
76B
330
1F
100
AcDbEntity
  8
0
  6
Continuous
 62
     7
370
    18
100
AcDbLine
 10
214.5339174212
 20
1886.1813947811
 30
0.0
 11
218.8339174212
 21
1886.1813947811
 31
0.0
  0
LINE
  5
76C
330
1F
100
AcDbEntity
  8
0
  6
Continuous
 62
     7
370
    18
100
AcDbLine
 10
214.5339174212
 20
1886.1813947811
 30
0.0
 11
214.5339174212
 21
2220.7813947811
 31
0.0
  0
LINE
  5
76D
330
1F
100
AcDbEntity
  8
0
  6
Continuous
 62
     7
370
    18
100
AcDbLine
 10
218.8339174212
 20
2220.7813947811
 30
0.0
 11
214.5339174212
 21
2220.7813947811
 31
0.0
  0
LINE
  5
76E
330
1F
100
AcDbEntity
  8
0
  6
Continuous
 62
     7
370
    18
100
AcDbLine
 10
894.6926746319
 20
1863.687238801
 30
0.0
 11
896.0839174212
 21
1863.687238801
 31
0.0
  0
LINE
  5
76F
330
1F
100
AcDbEntity
  8
0
  6
Continuous
 62
     7
370
    18
100
AcDbLine
 10
886.5839174212
 20
1863.687238801
 30
0.0
 11
894.6926746319
 21
1863.687238801
 31
0.0
  0
LINE
  5
770
330
1F
100
AcDbEntity
  8
0
  6
Continuous
 62
     7
370
    18
100
AcDbLine
 10
894.9224771013
 20
362.9056660182
 30
0.0
 11
886.7776260305
 21
362.9056660182
 31
0.0
  0
LINE
  5
771
330
1F
100
AcDbEntity
  8
0
  6
Continuous
 62
     7
370
    18
100
AcDbLine
 10
895.8902088119
 20
362.9056660182
 30
0.0
 11
894.9224771013
 21
362.9056660182
 31
0.0
  0
LINE
  5
772
330
1F
100
AcDbEntity
  8
0
  6
Continuous
 62
     7
370
    18
100
AcDbLine
 10
895.075043047
 20
363.2755507611
 30
0.0
 11
886.5839174212
 21
363.2755507611
 31
0.0
  0
LINE
  5
773
330
1F
100
AcDbEntity
  8
0
  6
Continuous
 62
     7
370
    18
100
AcDbLine
 10
896.0839174212
 20
363.2755507611
 30
0.0
 11
895.075043047
 21
363.2755507611
 31
0.0
  0
LINE
  5
774
330
1F
100
AcDbEntity
  8
0
  6
Continuous
 62
     7
370
    18
100
AcDbLine
 10
826.8339174212
 20
370.181394781
 30
0.0
 11
826.8339174212
 21
365.181394781
 31
0.0
  0
LINE
  5
775
330
1F
100
AcDbEntity
  8
0
  6
Continuous
 62
     7
370
    18
100
AcDbLine
 10
902.8339174212
 20
365.181394781
 30
0.0
 11
902.8339174212
 21
370.181394781
 31
0.0
  0
LINE
  5
776
330
1F
100
AcDbEntity
  8
0
  6
Continuous
 62
     7
370
    18
100
AcDbLine
 10
907.8339174212
 20
360.181394781
 30
0.0
 11
821.8339174212
 21
360.181394781
 31
0.0
  0
LINE
  5
777
330
1F
100
AcDbEntity
  8
0
  6
Continuous
 62
     7
370
    18
100
AcDbLine
 10
826.8339174212
 20
1861.7813947811
 30
0.0
 11
826.8339174212
 21
1856.7813947811
 31
0.0
  0
LINE
  5
778
330
1F
100
AcDbEntity
  8
0
  6
Continuous
 62
     7
370
    18
100
AcDbLine
 10
902.8339174212
 20
1856.7813947811
 30
0.0
 11
902.8339174212
 21
1861.7813947811
 31
0.0
  0
LINE
  5
779
330
1F
100
AcDbEntity
  8
0
  6
Continuous
 62
     7
370
    18
100
AcDbLine
 10
237.4839174212
 20
379.0813947811
 30
0.0
 11
910.1839174212
 21
379.0813947811
 31
0.0
  0
LINE
  5
77A
330
1F
100
AcDbEntity
  8
0
  6
Continuous
 62
     7
370
    18
100
AcDbLine
 10
237.4839174212
 20
1104.0813947811
 30
0.0
 11
237.4839174212
 21
379.0813947811
 31
0.0
  0
LINE
  5
77B
330
1F
100
AcDbEntity
  8
0
  6
Continuous
 62
     7
370
    18
100
AcDbLine
 10
910.1839174212
 20
1104.0813947811
 30
0.0
 11
237.4839174212
 21
1104.0813947811
 31
0.0
  0
LINE
  5
77C
330
1F
100
AcDbEntity
  8
0
  6
Continuous
 62
     7
370
    18
100
AcDbLine
 10
910.1839174212
 20
379.0813947811
 30
0.0
 11
910.1839174212
 21
1104.0813947811
 31
0.0
  0
LINE
  5
77D
330
1F
100
AcDbEntity
  8
0
  6
Continuous
 62
     7
370
    18
100
AcDbLine
 10
237.4839174212
 20
1104.3813947811
 30
0.0
 11
237.4839174212
 21
1104.0813947811
 31
0.0
  0
LINE
  5
77E
330
1F
100
AcDbEntity
  8
0
  6
Continuous
 62
     7
370
    18
100
AcDbLine
 10
237.4839174212
 20
379.0813947811
 30
0.0
 11
237.4839174212
 21
378.7813947811
 31
0.0
  0
LINE
  5
77F
330
1F
100
AcDbEntity
  8
0
  6
Continuous
 62
     7
370
    18
100
AcDbLine
 10
904.3339174212
 20
1852.7813947811
 30
0.0
 11
904.3339174212
 21
1848.7813947811
 31
0.0
  0
LINE
  5
780
330
1F
100
AcDbEntity
  8
0
  6
Continuous
 62
     7
370
    18
100
AcDbLine
 10
832.3339174212
 20
1852.7813947811
 30
0.0
 11
832.3339174212
 21
1848.7813947811
 31
0.0
  0
LINE
  5
781
330
1F
100
AcDbEntity
  8
0
  6
Continuous
 62
     7
370
    18
100
AcDbLine
 10
904.3339174212
 20
374.1813947811
 30
0.0
 11
904.3339174212
 21
378.1813947811
 31
0.0
  0
LINE
  5
782
330
1F
100
AcDbEntity
  8
0
  6
Continuous
 62
     7
370
    18
100
AcDbLine
 10
832.3339174212
 20
374.1813947811
 30
0.0
 11
832.3339174212
 21
378.1813947811
 31
0.0
  0
LWPOLYLINE
  5
783
330
1F
100
AcDbEntity
  8
0
  6
Continuous
 62
     7
370
    18
100
AcDbPolyline
 90
        8
 70
   128
 43
0.0
 10
904.7803175528
 20
1106.5162942778
 10
904.7803175609
 20
1106.5162940256
 10
904.7088041977
 20
1106.5137794713
 10
904.333210417
 20
1106.5112282944
 10
903.6773773456
 20
1106.5108329056
 10
902.8164859549
 20
1106.5126927778
 10
901.8454479361
 20
1106.5162940256
 10
901.8453879366
 20
1106.5162942778
  0
LINE
  5
784
330
1F
100
AcDbEntity
  8
0
  6
Continuous
 62
     7
370
    18
100
AcDbLine
 10
901.8453879366
 20
1106.5162942778
 30
0.0
 11
901.8453879366
 21
1107.4813947811
 31
0.0
  0
LWPOLYLINE
  5
785
330
1F
100
AcDbEntity
  8
0
  6
Continuous
 62
     7
370
    18
100
AcDbPolyline
 90
        8
 70
   128
 43
0.0
 10
880.8224469114
 20
1106.5162942778
 10
880.822386912
 20
1106.5162940256
 10
880.1786682779
 20
1106.5137794713
 10
879.2658997887
 20
1106.5112282944
 10
878.529942018
 20
1106.5108329056
 10
878.0529564813
 20
1106.5126927778
 10
877.8875172871
 20
1106.5162940256
 10
877.8875172953
 20
1106.5162942778
  0
LINE
  5
786
330
1F
100
AcDbEntity
  8
0
  6
Continuous
 62
     7
370
    18
100
AcDbLine
 10
880.8224469114
 20
1106.5162942778
 30
0.0
 11
880.8224469114
 21
1107.4813947811
 31
0.0
  0
LWPOLYLINE
  5
787
330
1F
100
AcDbEntity
  8
0
  6
Continuous
 62
     7
370
    18
100
AcDbPolyline
 90
        3
 70
   128
 43
0.0
 10
880.8224469114
 20
1106.5162942778
 10
880.8355374245
 20
1105.6564736589
 10
880.8316459169
 20
1104.9813947811
  0
LWPOLYLINE
  5
788
330
1F
100
AcDbEntity
  8
0
  6
Continuous
 62
     7
370
    18
100
AcDbPolyline
 90
        3
 70
   128
 43
0.0
 10
901.8361889311
 20
1104.9813947811
 10
901.8345888325
 20
1105.8407030174
 10
901.8453879366
 20
1106.5162942778
  0
LINE
  5
789
330
1F
100
AcDbEntity
  8
0
  6
Continuous
 62
     7
370
    18
100
AcDbLine
 10
901.8453879366
 20
1106.5162942778
 30
0.0
 11
880.8224469114
 21
1106.5162942778
 31
0.0
  0
LINE
  5
78A
330
1F
100
AcDbEntity
  8
0
  6
Continuous
 62
     7
370
    18
100
AcDbLine
 10
901.8453879366
 20
1119.4813947811
 30
0.0
 11
901.8453879366
 21
1120.4464952844
 31
0.0
  0
LWPOLYLINE
  5
78B
330
1F
100
AcDbEntity
  8
0
  6
Continuous
 62
     7
370
    18
100
AcDbPolyline
 90
        8
 70
   128
 43
0.0
 10
901.8453879366
 20
1120.4464952844
 10
901.8454479361
 20
1120.4464955365
 10
902.4891665702
 20
1120.4490100908
 10
903.4019350593
 20
1120.4515612677
 10
904.13789283
 20
1120.4519566566
 10
904.6148783668
 20
1120.4500967844
 10
904.7803175609
 20
1120.4464955365
 10
904.7803175528
 20
1120.4464952844
  0
LWPOLYLINE
  5
78C
330
1F
100
AcDbEntity
  8
0
  6
Continuous
 62
     7
370
    18
100
AcDbPolyline
 90
        8
 70
   128
 43
0.0
 10
877.8875172953
 20
1120.4464952844
 10
877.8875172871
 20
1120.4464955365
 10
877.9590306504
 20
1120.4490100908
 10
878.334624431
 20
1120.4515612677
 10
878.9904575024
 20
1120.4519566566
 10
879.8513488932
 20
1120.4500967844
 10
880.822386912
 20
1120.4464955365
 10
880.8224469114
 20
1120.4464952844
  0
LINE
  5
78D
330
1F
100
AcDbEntity
  8
0
  6
Continuous
 62
     7
370
    18
100
AcDbLine
 10
880.8224469114
 20
1119.4813947811
 30
0.0
 11
880.8224469114
 21
1120.4464952844
 31
0.0
  0
LWPOLYLINE
  5
78E
330
1F
100
AcDbEntity
  8
0
  6
Continuous
 62
     7
370
    18
100
AcDbPolyline
 90
        3
 70
   128
 43
0.0
 10
901.8453879366
 20
1120.4464952844
 10
901.8322974235
 20
1121.3063159033
 10
901.8361889311
 20
1121.9813947811
  0
LWPOLYLINE
  5
78F
330
1F
100
AcDbEntity
  8
0
  6
Continuous
 62
     7
370
    18
100
AcDbPolyline
 90
        3
 70
   128
 43
0.0
 10
880.8316459169
 20
1121.9813947811
 10
880.8332460155
 20
1121.1220865448
 10
880.8224469114
 20
1120.4464952844
  0
LINE
  5
790
330
1F
100
AcDbEntity
  8
0
  6
Continuous
 62
     7
370
    18
100
AcDbLine
 10
880.8224469114
 20
1120.4464952844
 30
0.0
 11
901.8453879366
 21
1120.4464952844
 31
0.0
  0
LINE
  5
791
330
1F
100
AcDbEntity
  8
0
  6
Continuous
 62
     7
370
    18
100
AcDbLine
 10
237.4839174212
 20
1847.8813947811
 30
0.0
 11
237.4839174212
 21
1122.8813947811
 31
0.0
  0
LINE
  5
792
330
1F
100
AcDbEntity
  8
0
  6
Continuous
 62
     7
370
    18
100
AcDbLine
 10
237.4839174212
 20
1122.8813947811
 30
0.0
 11
910.1839174212
 21
1122.8813947811
 31
0.0
  0
LINE
  5
793
330
1F
100
AcDbEntity
  8
0
  6
Continuous
 62
     7
370
    18
100
AcDbLine
 10
910.1839174212
 20
1847.8813947811
 30
0.0
 11
237.4839174212
 21
1847.8813947811
 31
0.0
  0
LINE
  5
794
330
1F
100
AcDbEntity
  8
0
  6
Continuous
 62
     7
370
    18
100
AcDbLine
 10
910.1839174212
 20
1122.8813947811
 30
0.0
 11
910.1839174212
 21
1847.8813947811
 31
0.0
  0
LINE
  5
795
330
1F
100
AcDbEntity
  8
0
  6
Continuous
 62
     7
370
    18
100
AcDbLine
 10
237.4839174212
 20
1848.1813947811
 30
0.0
 11
237.4839174212
 21
1847.8813947811
 31
0.0
  0
LINE
  5
796
330
1F
100
AcDbEntity
  8
0
  6
Continuous
 62
     7
370
    18
100
AcDbLine
 10
237.4839174212
 20
1122.8813947811
 30
0.0
 11
237.4839174212
 21
1122.5813947811
 31
0.0
  0
LINE
  5
797
330
1F
100
AcDbEntity
  8
0
  6
Continuous
 62
     7
370
    18
100
AcDbLine
 10
880.8339174212
 20
1116.4813947811
 30
0.0
 11
880.8339174212
 21
1111.4813947811
 31
0.0
  0
LINE
  5
798
330
1F
100
AcDbEntity
  8
0
  6
Continuous
 62
     7
370
    18
100
AcDbLine
 10
908.7438530811
 20
1116.4813947811
 30
0.0
 11
908.7438530811
 21
1111.4813947811
 31
0.0
  0
LINE
  5
799
330
1F
100
AcDbEntity
  8
0
  6
Continuous
 62
     7
370
    18
100
AcDbLine
 10
912.2306478135
 20
1116.4813947811
 30
0.0
 11
912.2306478135
 21
1111.4813947811
 31
0.0
  0
LINE
  5
79A
330
1F
100
AcDbEntity
  8
0
  6
Continuous
 62
     7
370
    18
100
AcDbLine
 10
931.8207121536
 20
1116.4813947811
 30
0.0
 11
931.8207121536
 21
1111.4813947811
 31
0.0
  0
CIRCLE
  5
79B
330
1F
100
AcDbEntity
  8
0
  6
Continuous
 62
     7
370
    18
100
AcDbCircle
 10
829.8339174212
 20
338.681394781
 30
0.0
 40
5.771670190274872
  0
CIRCLE
  5
79C
330
1F
100
AcDbEntity
  8
0
  6
Continuous
 62
     7
370
    18
100
AcDbCircle
 10
864.8339174212
 20
350.681394781
 30
0.0
 40
5.771670190274823
  0
CIRCLE
  5
79D
330
1F
100
AcDbEntity
  8
0
  6
Continuous
 62
     7
370
    18
100
AcDbCircle
 10
899.8339174212
 20
338.681394781
 30
0.0
 40
5.771670190274904
  0
LINE
  5
79E
330
1F
100
AcDbEntity
  8
0
  6
Continuous
 62
     7
370
    18
100
AcDbLine
 10
278.8339174212
 20
317.7561116148
 30
0.0
 11
272.8339174212
 21
317.7561116148
 31
0.0
  0
LINE
  5
79F
330
1F
100
AcDbEntity
  8
0
  6
Continuous
 62
     7
370
    18
100
AcDbLine
 10
284.8339174212
 20
317.7561116148
 30
0.0
 11
278.8339174212
 21
317.7561116148
 31
0.0
  0
LINE
  5
7A0
330
1F
100
AcDbEntity
  8
0
  6
Continuous
 62
     7
370
    18
100
AcDbLine
 10
278.8339174212
 20
317.3151335059
 30
0.0
 11
273.0622472309
 21
317.3151335059
 31
0.0
  0
LINE
  5
7A1
330
1F
100
AcDbEntity
  8
0
  6
Continuous
 62
     7
370
    18
100
AcDbLine
 10
284.6055876115
 20
317.3151335059
 30
0.0
 11
278.8339174212
 21
317.3151335059
 31
0.0
  0
LINE
  5
7A2
330
1F
100
AcDbEntity
  8
0
  6
Continuous
 62
     7
370
    18
100
AcDbLine
 10
868.8339174212
 20
317.3151335059
 30
0.0
 11
863.0622472309
 21
317.3151335059
 31
0.0
  0
LINE
  5
7A3
330
1F
100
AcDbEntity
  8
0
  6
Continuous
 62
     7
370
    18
100
AcDbLine
 10
874.6055876115
 20
317.3151335059
 30
0.0
 11
868.8339174212
 21
317.3151335059
 31
0.0
  0
LINE
  5
7A4
330
1F
100
AcDbEntity
  8
0
  6
Continuous
 62
     7
370
    18
100
AcDbLine
 10
868.8339174212
 20
317.7561116148
 30
0.0
 11
862.8339174212
 21
317.7561116148
 31
0.0
  0
LINE
  5
7A5
330
1F
100
AcDbEntity
  8
0
  6
Continuous
 62
     7
370
    18
100
AcDbLine
 10
874.8339174212
 20
317.7561116148
 30
0.0
 11
868.8339174212
 21
317.7561116148
 31
0.0
  0
LINE
  5
7A6
330
1F
100
AcDbEntity
  8
0
  6
Continuous
 62
     7
370
    18
100
AcDbLine
 10
324.3726175023
 20
317.3151335059
 30
0.0
 11
323.0622472309
 21
317.3151335059
 31
0.0
  0
LINE
  5
7A7
330
1F
100
AcDbEntity
  8
0
  6
Continuous
 62
     7
370
    18
100
AcDbLine
 10
334.6055876115
 20
317.3151335059
 30
0.0
 11
324.3726175023
 21
317.3151335059
 31
0.0
  0
LINE
  5
7A8
330
1F
100
AcDbEntity
  8
0
  6
Continuous
 62
     7
370
    18
100
AcDbLine
 10
324.1961265165
 20
317.7561116148
 30
0.0
 11
322.8339174212
 21
317.7561116148
 31
0.0
  0
LINE
  5
7A9
330
1F
100
AcDbEntity
  8
0
  6
Continuous
 62
     7
370
    18
100
AcDbLine
 10
334.8339174212
 20
317.7561116148
 30
0.0
 11
324.1961265165
 21
317.7561116148
 31
0.0
  0
LINE
  5
7AA
330
1F
100
AcDbEntity
  8
0
  6
Continuous
 62
     7
370
    18
100
AcDbLine
 10
818.8339174212
 20
317.3151335059
 30
0.0
 11
813.0622472309
 21
317.3151335059
 31
0.0
  0
LINE
  5
7AB
330
1F
100
AcDbEntity
  8
0
  6
Continuous
 62
     7
370
    18
100
AcDbLine
 10
824.6055876115
 20
317.3151335059
 30
0.0
 11
818.8339174212
 21
317.3151335059
 31
0.0
  0
LINE
  5
7AC
330
1F
100
AcDbEntity
  8
0
  6
Continuous
 62
     7
370
    18
100
AcDbLine
 10
818.8339174212
 20
317.7561116148
 30
0.0
 11
812.8339174212
 21
317.7561116148
 31
0.0
  0
LINE
  5
7AD
330
1F
100
AcDbEntity
  8
0
  6
Continuous
 62
     7
370
    18
100
AcDbLine
 10
824.8339174212
 20
317.7561116148
 30
0.0
 11
818.8339174212
 21
317.7561116148
 31
0.0
  0
LINE
  5
7AE
330
1F
100
AcDbEntity
  8
0
  6
Continuous
 62
     7
370
    18
100
AcDbLine
 10
285.8339174212
 20
203.0813947811
 30
0.0
 11
285.8339174212
 21
320.0813947811
 31
0.0
  0
LINE
  5
7AF
330
1F
100
AcDbEntity
  8
0
  6
Continuous
 62
     7
370
    18
100
AcDbLine
 10
321.8339174212
 20
203.0813947811
 30
0.0
 11
321.8339174212
 21
320.0813947811
 31
0.0
  0
LINE
  5
7B0
330
1F
100
AcDbEntity
  8
0
  6
Continuous
 62
     7
370
    18
100
AcDbLine
 10
825.8339174212
 20
203.0813947811
 30
0.0
 11
825.8339174212
 21
320.0813947811
 31
0.0
  0
LINE
  5
7B1
330
1F
100
AcDbEntity
  8
0
  6
Continuous
 62
     7
370
    18
100
AcDbLine
 10
861.8339174212
 20
203.0813947811
 30
0.0
 11
861.8339174212
 21
320.0813947811
 31
0.0
  0
LINE
  5
7B2
330
1F
100
AcDbEntity
  8
0
  6
Continuous
 62
     7
370
    18
100
AcDbLine
 10
861.8339174212
 20
195.0813947811
 30
0.0
 11
861.8339174212
 21
203.0813947811
 31
0.0
  0
LINE
  5
7B3
330
1F
100
AcDbEntity
  8
0
  6
Continuous
 62
     7
370
    18
100
AcDbLine
 10
825.8339174212
 20
195.0813947811
 30
0.0
 11
825.8339174212
 21
203.0813947811
 31
0.0
  0
LINE
  5
7B4
330
1F
100
AcDbEntity
  8
0
  6
Continuous
 62
     7
370
    18
100
AcDbLine
 10
321.8339174212
 20
195.0813947811
 30
0.0
 11
321.8339174212
 21
203.0813947811
 31
0.0
  0
LINE
  5
7B5
330
1F
100
AcDbEntity
  8
0
  6
Continuous
 62
     7
370
    18
100
AcDbLine
 10
285.8339174212
 20
195.0813947811
 30
0.0
 11
285.8339174212
 21
203.0813947811
 31
0.0
  0
LINE
  5
7B6
330
1F
100
AcDbEntity
  8
0
  6
Continuous
 62
     7
370
    18
100
AcDbLine
 10
248.8434005773
 20
1848.8789826928
 30
0.0
 11
560.9839174212
 21
1848.8789826928
 31
0.0
  0
LINE
  5
7B7
330
1F
100
AcDbEntity
  8
0
  6
Continuous
 62
     7
370
    18
100
AcDbLine
 10
586.6839174212
 20
1848.8789826928
 30
0.0
 11
831.3339174212
 21
1848.8789826928
 31
0.0
  0
LINE
  5
7B8
330
1F
100
AcDbEntity
  8
0
  6
Continuous
 62
     7
370
    18
100
AcDbLine
 10
845.2892419242
 20
1121.9813947811
 30
0.0
 11
845.2892419242
 21
1104.9813947811
 31
0.0
  0
LINE
  5
7B9
330
1F
100
AcDbEntity
  8
0
  6
Continuous
 62
     7
370
    18
100
AcDbLine
 10
248.8363295095
 20
1104.9813947811
 30
0.0
 11
248.8363295095
 21
1121.9813947811
 31
0.0
  0
LINE
  5
7BA
330
1F
100
AcDbEntity
  8
0
  6
Continuous
 62
     7
370
    18
100
AcDbLine
 10
248.8363295095
 20
1848.7813947811
 30
0.0
 11
248.8363295095
 21
1848.871911625
 31
0.0
  0
LINE
  5
7BB
330
1F
100
AcDbEntity
  8
0
  6
Continuous
 62
     7
370
    18
100
AcDbLine
 10
302.3785929182
 20
1104.9813947811
 30
0.0
 11
302.3785929182
 21
1121.9813947811
 31
0.0
  0
LINE
  5
7BC
330
1F
100
AcDbEntity
  8
0
  6
Continuous
 62
     7
370
    18
100
AcDbLine
 10
933.4339174212
 20
1884.0813947811
 30
0.0
 11
933.4339174212
 21
323.2813947811
 31
0.0
  0
LINE
  5
7BD
330
1F
100
AcDbEntity
  8
0
  6
Continuous
 62
     7
370
    18
100
AcDbLine
 10
214.2339174212
 20
323.2813947811
 30
0.0
 11
214.2339174212
 21
1884.0813947811
 31
0.0
  0
LINE
  5
7BE
330
1F
100
AcDbEntity
  8
0
  6
Continuous
 62
     7
370
    18
100
AcDbLine
 10
890.3339174212
 20
326.2313947811
 30
0.0
 11
890.1339174212
 21
326.2313947811
 31
0.0
  0
LINE
  5
7BF
330
1F
100
AcDbEntity
  8
0
  6
Continuous
 62
     7
370
    18
100
AcDbLine
 10
257.5339174212
 20
326.2313947811
 30
0.0
 11
257.3339174212
 21
326.2313947811
 31
0.0
  0
LINE
  5
7C0
330
1F
100
AcDbEntity
  8
0
  6
Continuous
 62
     7
370
    18
100
AcDbLine
 10
257.5339174212
 20
369.7313947811
 30
0.0
 11
257.3339174212
 21
369.7313947811
 31
0.0
  0
LINE
  5
7C1
330
1F
100
AcDbEntity
  8
0
  6
Continuous
 62
     7
370
    18
100
AcDbLine
 10
890.1339174212
 20
323.2813947811
 30
0.0
 11
257.5339174212
 21
323.2813947811
 31
0.0
  0
POINT
  5
7C2
330
1F
100
AcDbEntity
  8
RAHMEN
 62
     7
370
    18
100
AcDbPoint
 10
894.3339174212
 20
1972.0813947811
 30
0.0
  0
POINT
  5
7C3
330
1F
100
AcDbEntity
  8
RAHMEN
 62
     7
370
    18
100
AcDbPoint
 10
259.3339174212
 20
1972.0813947811
 30
0.0
  0
POINT
  5
7C4
330
1F
100
AcDbEntity
  8
RAHMEN
 62
     7
370
    18
100
AcDbPoint
 10
259.3339174212
 20
1892.0813947811
 30
0.0
  0
INSERT
  5
7CD
330
1F
100
AcDbEntity
  8
RAHMEN
 62
     7
100
AcDbBlockReference
  2
SW_NOTE_0
 10
1021.1254019293
 20
2059.8076527992
 30
0.0
  0
LEADER
  5
7CF
330
1F
100
AcDbEntity
  8
RAHMEN
 62
     7
100
AcDbLeader
  3
SLDDIMSTYLE0
 76
     2
 10
894.3339174212
 20
1972.0813947811
 30
0.0
 10
1021.1254019293
 20
2059.8076527992
 30
0.0
  0
INSERT
  5
7D5
330
1F
100
AcDbEntity
  8
RAHMEN
 62
     7
100
AcDbBlockReference
  2
SW_NOTE_1
 10
425.2146103551
 20
2670.46671931
 30
0.0
  0
INSERT
  5
7DB
330
1F
100
AcDbEntity
  8
RAHMEN
 62
     7
100
AcDbBlockReference
  2
SW_NOTE_2
 10
446.3665594855
 20
2355.0645981038
 30
0.0
  0
LEADER
  5
7DC
330
1F
100
AcDbEntity
  8
RAHMEN
 62
     7
100
AcDbLeader
  3
SLDDIMSTYLE0
 76
     2
 10
259.3339174212
 20
1892.0813947811
 30
0.0
 10
446.3665594855
 20
2355.0645981038
 30
0.0
  0
INSERT
  5
7E3
330
1F
100
AcDbEntity
  8
RAHMEN
 62
     7
100
AcDbBlockReference
  2
SW_NOTE_3
 10
446.3665594855
 20
2436.8172991015
 30
0.0
  0
LEADER
  5
7E4
330
1F
100
AcDbEntity
  8
RAHMEN
 62
     7
100
AcDbLeader
  3
SLDDIMSTYLE0
 76
     2
 10
259.3339174212
 20
1972.0813947811
 30
0.0
 10
446.3665594855
 20
2436.8172991015
 30
0.0
  0
ENDSEC
  0
SECTION
  2
OBJECTS
  0
DICTIONARY
  5
C
330
0
100
AcDbDictionary
281
     1
  3
ACAD_GROUP
350
D
  3
ACAD_LAYOUT
350
1A
  3
ACAD_MLINESTYLE
350
17
  3
ACAD_PLOTSETTINGS
350
19
  3
ACAD_PLOTSTYLENAME
350
E
  3
ACAD_SCALELIST
350
47
  0
DICTIONARY
  5
D
102
{ACAD_REACTORS
330
C
102
}
330
C
100
AcDbDictionary
281
     1
  0
DICTIONARY
  5
1A
102
{ACAD_REACTORS
330
C
102
}
330
C
100
AcDbDictionary
281
     1
  3
Layout1
350
1E
  3
Layout2
350
26
  3
Model
350
22
  0
DICTIONARY
  5
17
102
{ACAD_REACTORS
330
C
102
}
330
C
100
AcDbDictionary
281
     1
  3
Standard
350
18
  0
DICTIONARY
  5
19
102
{ACAD_REACTORS
330
C
102
}
330
C
100
AcDbDictionary
281
     1
  0
ACDBDICTIONARYWDFLT
  5
E
102
{ACAD_REACTORS
330
C
102
}
330
C
100
AcDbDictionary
281
     1
  3
Normal
350
F
100
AcDbDictionaryWithDefault
340
F
  0
DICTIONARY
  5
47
102
{ACAD_REACTORS
330
C
102
}
330
C
100
AcDbDictionary
281
     1
  3
A0
350
48
  3
A1
350
49
  3
A2
350
4A
  3
A3
350
4B
  3
A4
350
4C
  3
A5
350
4D
  3
A6
350
4E
  3
A7
350
4F
  3
A8
350
50
  3
A9
350
51
  3
B0
350
52
  3
B1
350
53
  3
B2
350
54
  3
B3
350
55
  3
B4
350
56
  3
B5
350
57
  3
B6
350
58
  3
B7
350
59
  3
B8
350
5A
  3
B9
350
5B
  3
C0
350
5C
  3
C1
350
5D
  3
C2
350
5E
  3
C3
350
5F
  3
C4
350
60
  3
C5
350
61
  3
C6
350
62
  3
C7
350
63
  3
C8
350
64
  3
C9
350
65
  3
D0
350
66
  3
D1
350
67
  3
D2
350
68
  0
LAYOUT
  5
1E
102
{ACAD_REACTORS
330
1A
102
}
330
1A
100
AcDbPlotSettings
  1

  2
none_device
  4

  6

 40
0.0
 41
0.0
 42
0.0
 43
0.0
 44
0.0
 45
0.0
 46
0.0
 47
0.0
 48
0.0
 49
0.0
140
0.0
141
0.0
142
1.0
143
1.0
 70
   688
 72
     1
 73
     0
 74
     5
  7

 75
    16
147
1.0
148
0.0
149
0.0
100
AcDbLayout
  1
Layout1
 70
     1
 71
     1
 10
0.0
 20
0.0
 11
420.0
 21
297.0
 12
0.0
 22
0.0
 32
0.0
 14
1.0000000000E+20
 24
1.0000000000E+20
 34
1.0000000000E+20
 15
-1.0000000000E+20
 25
-1.0000000000E+20
 35
-1.0000000000E+20
146
0.0
 13
0.0
 23
0.0
 33
0.0
 16
1.0
 26
0.0
 36
0.0
 17
0.0
 27
1.0
 37
0.0
 76
     0
330
1B
  0
LAYOUT
  5
26
102
{ACAD_REACTORS
330
1A
102
}
330
1A
100
AcDbPlotSettings
  1

  2
none_device
  4

  6

 40
0.0
 41
0.0
 42
0.0
 43
0.0
 44
0.0
 45
0.0
 46
0.0
 47
0.0
 48
0.0
 49
0.0
140
0.0
141
0.0
142
1.0
143
1.0
 70
   688
 72
     1
 73
     0
 74
     5
  7

 75
    16
147
1.0
148
0.0
149
0.0
100
AcDbLayout
  1
Layout2
 70
     1
 71
     2
 10
0.0
 20
0.0
 11
0.0
 21
0.0
 12
0.0
 22
0.0
 32
0.0
 14
0.0
 24
0.0
 34
0.0
 15
0.0
 25
0.0
 35
0.0
146
0.0
 13
0.0
 23
0.0
 33
0.0
 16
1.0
 26
0.0
 36
0.0
 17
0.0
 27
1.0
 37
0.0
 76
     0
330
23
  0
LAYOUT
  5
22
102
{ACAD_REACTORS
330
1A
102
}
330
1A
100
AcDbPlotSettings
  1

  2
none_device
  4
Letter_(8.50_x_11.00_Inches)
  6

 40
6.35
 41
6.35
 42
6.35000508
 43
6.35000508
 44
215.9
 45
279.4
 46
0.0
 47
0.0
 48
0.0
 49
0.0
140
0.0
141
0.0
142
1.0
143
1.0
 70
  1712
 72
     1
 73
     0
 74
     0
  7

 75
     0
147
1.0
148
0.0
149
0.0
100
AcDbLayout
  1
Model
 70
     1
 71
     0
 10
0.0
 20
0.0
 11
2100.0
 21
2970.0
 12
0.0
 22
0.0
 32
0.0
 14
0.0
 24
0.0
 34
0.0
 15
2100.0
 25
2970.0
 35
0.0
146
0.0
 13
0.0
 23
0.0
 33
0.0
 16
1.0
 26
0.0
 36
0.0
 17
0.0
 27
1.0
 37
0.0
 76
     0
330
1F
331
29
  0
MLINESTYLE
  5
18
102
{ACAD_REACTORS
330
17
102
}
330
17
100
AcDbMlineStyle
  2
Standard
 70
     0
  3

 62
   256
 51
90.0
 52
90.0
 71
     2
 49
0.5
 62
   256
  6
BYLAYER
 49
-0.5
 62
   256
  6
BYLAYER
  0
ACDBPLACEHOLDER
  5
F
102
{ACAD_REACTORS
330
E
102
}
330
E
  0
SCALE
  5
48
102
{ACAD_REACTORS
330
47
102
}
330
47
100
AcDbScale
 70
     0
300
1:1
140
1.0
141
1.0
290
     1
  0
SCALE
  5
49
102
{ACAD_REACTORS
330
47
102
}
330
47
100
AcDbScale
 70
     0
300
1:2
140
1.0
141
2.0
290
     0
  0
SCALE
  5
4A
102
{ACAD_REACTORS
330
47
102
}
330
47
100
AcDbScale
 70
     0
300
1:4
140
1.0
141
4.0
290
     0
  0
SCALE
  5
4B
102
{ACAD_REACTORS
330
47
102
}
330
47
100
AcDbScale
 70
     0
300
1:5
140
1.0
141
5.0
290
     0
  0
SCALE
  5
4C
102
{ACAD_REACTORS
330
47
102
}
330
47
100
AcDbScale
 70
     0
300
1:8
140
1.0
141
8.0
290
     0
  0
SCALE
  5
4D
102
{ACAD_REACTORS
330
47
102
}
330
47
100
AcDbScale
 70
     0
300
1:10
140
1.0
141
10.0
290
     0
  0
SCALE
  5
4E
102
{ACAD_REACTORS
330
47
102
}
330
47
100
AcDbScale
 70
     0
300
1:16
140
1.0
141
16.0
290
     0
  0
SCALE
  5
4F
102
{ACAD_REACTORS
330
47
102
}
330
47
100
AcDbScale
 70
     0
300
1:20
140
1.0
141
20.0
290
     0
  0
SCALE
  5
50
102
{ACAD_REACTORS
330
47
102
}
330
47
100
AcDbScale
 70
     0
300
1:30
140
1.0
141
30.0
290
     0
  0
SCALE
  5
51
102
{ACAD_REACTORS
330
47
102
}
330
47
100
AcDbScale
 70
     0
300
1:40
140
1.0
141
40.0
290
     0
  0
SCALE
  5
52
102
{ACAD_REACTORS
330
47
102
}
330
47
100
AcDbScale
 70
     0
300
1:50
140
1.0
141
50.0
290
     0
  0
SCALE
  5
53
102
{ACAD_REACTORS
330
47
102
}
330
47
100
AcDbScale
 70
     0
300
1:100
140
1.0
141
100.0
290
     0
  0
SCALE
  5
54
102
{ACAD_REACTORS
330
47
102
}
330
47
100
AcDbScale
 70
     0
300
2:1
140
2.0
141
1.0
290
     0
  0
SCALE
  5
55
102
{ACAD_REACTORS
330
47
102
}
330
47
100
AcDbScale
 70
     0
300
4:1
140
4.0
141
1.0
290
     0
  0
SCALE
  5
56
102
{ACAD_REACTORS
330
47
102
}
330
47
100
AcDbScale
 70
     0
300
8:1
140
8.0
141
1.0
290
     0
  0
SCALE
  5
57
102
{ACAD_REACTORS
330
47
102
}
330
47
100
AcDbScale
 70
     0
300
10:1
140
10.0
141
1.0
290
     0
  0
SCALE
  5
58
102
{ACAD_REACTORS
330
47
102
}
330
47
100
AcDbScale
 70
     0
300
100:1
140
100.0
141
1.0
290
     0
  0
SCALE
  5
59
102
{ACAD_REACTORS
330
47
102
}
330
47
100
AcDbScale
 70
     0
300
1/128" = 1'-0"
140
0.0078125
141
12.0
290
     0
  0
SCALE
  5
5A
102
{ACAD_REACTORS
330
47
102
}
330
47
100
AcDbScale
 70
     0
300
1/64" = 1'-0"
140
0.015625
141
12.0
290
     0
  0
SCALE
  5
5B
102
{ACAD_REACTORS
330
47
102
}
330
47
100
AcDbScale
 70
     0
300
1/32" = 1'-0"
140
0.03125
141
12.0
290
     0
  0
SCALE
  5
5C
102
{ACAD_REACTORS
330
47
102
}
330
47
100
AcDbScale
 70
     0
300
1/16" = 1'-0"
140
0.0625
141
12.0
290
     0
  0
SCALE
  5
5D
102
{ACAD_REACTORS
330
47
102
}
330
47
100
AcDbScale
 70
     0
300
3/32" = 1'-0"
140
0.09375
141
12.0
290
     0
  0
SCALE
  5
5E
102
{ACAD_REACTORS
330
47
102
}
330
47
100
AcDbScale
 70
     0
300
1/8" = 1'-0"
140
0.125
141
12.0
290
     0
  0
SCALE
  5
5F
102
{ACAD_REACTORS
330
47
102
}
330
47
100
AcDbScale
 70
     0
300
3/16" = 1'-0"
140
0.1875
141
12.0
290
     0
  0
SCALE
  5
60
102
{ACAD_REACTORS
330
47
102
}
330
47
100
AcDbScale
 70
     0
300
1/4" = 1'-0"
140
0.25
141
12.0
290
     0
  0
SCALE
  5
61
102
{ACAD_REACTORS
330
47
102
}
330
47
100
AcDbScale
 70
     0
300
3/8" = 1'-0"
140
0.375
141
12.0
290
     0
  0
SCALE
  5
62
102
{ACAD_REACTORS
330
47
102
}
330
47
100
AcDbScale
 70
     0
300
1/2" = 1'-0"
140
0.5
141
12.0
290
     0
  0
SCALE
  5
63
102
{ACAD_REACTORS
330
47
102
}
330
47
100
AcDbScale
 70
     0
300
3/4" = 1'-0"
140
0.75
141
12.0
290
     0
  0
SCALE
  5
64
102
{ACAD_REACTORS
330
47
102
}
330
47
100
AcDbScale
 70
     0
300
1" = 1'-0"
140
1.0
141
12.0
290
     0
  0
SCALE
  5
65
102
{ACAD_REACTORS
330
47
102
}
330
47
100
AcDbScale
 70
     0
300
1-1/2" = 1'-0"
140
1.5
141
12.0
290
     0
  0
SCALE
  5
66
102
{ACAD_REACTORS
330
47
102
}
330
47
100
AcDbScale
 70
     0
300
3" = 1'-0"
140
3.0
141
12.0
290
     0
  0
SCALE
  5
67
102
{ACAD_REACTORS
330
47
102
}
330
47
100
AcDbScale
 70
     0
300
6" = 1'-0"
140
6.0
141
12.0
290
     0
  0
SCALE
  5
68
102
{ACAD_REACTORS
330
47
102
}
330
47
100
AcDbScale
 70
     0
300
1'-0" = 1'-0"
140
12.0
141
12.0
290
     0
  0
ENDSEC
  0
EOF
