  0
SECTION
  2
HEADER
  9
$ACADVER
  1
AC1009
  9
$INSBASE
 10
   0.0000
 20
   0.0000
 30
    0.0
  9
$EXTMIN
 10
 -78.0000
 20
-259.5000
 30
   0.0000
  9
$EXTMAX
 10
2895.9270
 20
2100.0000
 30
   0.0000
  9
$LTSCALE
 40
1.00
  9
$PSLTSCALE
 70
1
  0
ENDSEC
  0
SECTION
  2
TABLES
  0
TABLE
  2
LTYPE
 70
  5
  0
LTYPE
  2
AUSGEZOGEN
 70
 64
  3
AUSGEZOGEN
 72
 65
 73
  0
 40
0.0
  0
LTYPE
  2
PUNKTIERT
 70
 64
  3
Gepunktet
 72
 65
 73
  2
 40
30.0000
 49
0.0
 49
-30.0000
  0
LTYPE
  2
STRICHLIERT
 70
 64
  3
Strichliert
 72
 65
 73
  2
 40
80.0000
 49
50.0000
 49
-30.0000
  0
LTYPE
  2
STRICHPUNKT
 70
 64
  3
Strichpunktet
 72
 65
 73
  4
 40
160.0000
 49
100.0000
 49
-30.0000
 49
0.0
 49
-30.0000
  0
LTYPE
  2
STRICHPUNKTPUNKT
 70
 64
  3
Strichpunktpunktet
 72
 65
 73
  6
 40
190.0000
 49
100.0000
 49
-30.0000
 49
0.0
 49
-30.0000
 49
0.0
 49
-30.0000
  0
ENDTAB
  0
TABLE
  2
LAYER
 70
5
  0
LAYER
  2
550
 70
  0
 62
  2
  6
AUSGEZOGEN
  0
LAYER
  2
510
 70
  0
 62
  2
  6
AUSGEZOGEN
  0
LAYER
  2
0
 70
  0
 62
  1
  6
AUSGEZOGEN
  0
LAYER
  2
200
 70
  0
 62
  7
  6
AUSGEZOGEN
999
SWS-Layer-Line-Width
999
0.20
  0
LAYER
  2
400
 70
  0
 62
  4
  6
AUSGEZOGEN
999
SWS-Layer-Line-Width
999
0.30
  0
ENDTAB
  0
TABLE
  2
STYLE
 70
  1
  0
STYLE
  2
STANDARD
 70
 64
 40
0.0
 41
1.0
 50
0.0
 71
  0
 42
30.0
  3
TXT.SHX
  4

  0
ENDTAB
  0
ENDSEC
  0
SECTION
  2
ENTITIES
  0
LINE
  8
400
  6
AUSGEZOGEN
 10
 520.0000
 20
1900.0000
 11
 961.5000
 21
1966.5000
  0
LINE
  8
400
  6
AUSGEZOGEN
 10
2703.5700
 20
1966.5000
 11
 961.5000
 21
1966.5000
  0
LINE
  8
400
  6
AUSGEZOGEN
 10
 520.0000
 20
1900.0000
 11
 520.0000
 21
1975.0000
  0
LINE
  8
400
  6
AUSGEZOGEN
 10
 520.0000
 20
1825.0000
 11
 520.0000
 21
1900.0000
  0
LINE
  8
400
  6
AUSGEZOGEN
 10
 595.0000
 20
1900.0000
 11
 520.0000
 21
1900.0000
  0
LINE
  8
400
  6
AUSGEZOGEN
 10
 445.0000
 20
1900.0000
 11
 520.0000
 21
1900.0000
  0
CIRCLE
  8
400
  6
AUSGEZOGEN
 10
 520.0000
 20
1900.0000
 40
  50.0000
  0
CIRCLE
  8
200
  6
AUSGEZOGEN
 10
 390.0000
 20
1825.0000
 40
  10.0000
  0
LINE
  8
200
  6
AUSGEZOGEN
 10
 436.0000
 20
1957.0000
 11
 436.0000
 21
1933.0000
  0
LINE
  8
200
  6
AUSGEZOGEN
 10
 456.0000
 20
1957.0000
 11
 436.0000
 21
1957.0000
  0
LINE
  8
200
  6
AUSGEZOGEN
 10
 456.0000
 20
1933.0000
 11
 456.0000
 21
1957.0000
  0
LINE
  8
200
  6
AUSGEZOGEN
 10
 436.0000
 20
1933.0000
 11
 456.0000
 21
1933.0000
  0
LINE
  8
200
  6
AUSGEZOGEN
 10
 433.0000
 20
1960.0000
 11
 433.0000
 21
1930.0000
  0
LINE
  8
200
  6
AUSGEZOGEN
 10
 459.0000
 20
1960.0000
 11
 433.0000
 21
1960.0000
  0
LINE
  8
200
  6
AUSGEZOGEN
 10
 459.0000
 20
1930.0000
 11
 459.0000
 21
1960.0000
  0
LINE
  8
200
  6
AUSGEZOGEN
 10
 433.0000
 20
1930.0000
 11
 459.0000
 21
1930.0000
  0
LINE
  8
200
  6
AUSGEZOGEN
 10
 320.0000
 20
1960.0000
 11
 320.0000
 21
1930.0000
  0
LINE
  8
200
  6
AUSGEZOGEN
 10
 400.0000
 20
1960.0000
 11
 320.0000
 21
1960.0000
  0
LINE
  8
200
  6
AUSGEZOGEN
 10
 400.0000
 20
1930.0000
 11
 400.0000
 21
1960.0000
  0
LINE
  8
200
  6
AUSGEZOGEN
 10
 320.0000
 20
1930.0000
 11
 400.0000
 21
1930.0000
  0
LINE
  8
200
  6
AUSGEZOGEN
 10
 396.0000
 20
1942.0000
 11
 396.0000
 21
1934.0000
  0
LINE
  8
200
  6
AUSGEZOGEN
 10
 388.0000
 20
1942.0000
 11
 396.0000
 21
1942.0000
  0
LINE
  8
200
  6
AUSGEZOGEN
 10
 396.0000
 20
1934.0000
 11
 388.0000
 21
1934.0000
  0
LINE
  8
200
  6
AUSGEZOGEN
 10
 388.0000
 20
1942.0000
 11
 388.0000
 21
1934.0000
  0
LINE
  8
200
  6
AUSGEZOGEN
 10
 396.0000
 20
1956.0000
 11
 388.0000
 21
1956.0000
  0
LINE
  8
200
  6
AUSGEZOGEN
 10
 396.0000
 20
1948.0000
 11
 396.0000
 21
1956.0000
  0
LINE
  8
200
  6
AUSGEZOGEN
 10
 388.0000
 20
1948.0000
 11
 396.0000
 21
1948.0000
  0
LINE
  8
200
  6
AUSGEZOGEN
 10
 388.0000
 20
1956.0000
 11
 388.0000
 21
1948.0000
  0
LINE
  8
200
  6
AUSGEZOGEN
 10
 324.0000
 20
1956.0000
 11
 332.0000
 21
1956.0000
  0
LINE
  8
200
  6
AUSGEZOGEN
 10
 332.0000
 20
1948.0000
 11
 332.0000
 21
1956.0000
  0
LINE
  8
200
  6
AUSGEZOGEN
 10
 324.0000
 20
1948.0000
 11
 332.0000
 21
1948.0000
  0
LINE
  8
200
  6
AUSGEZOGEN
 10
 324.0000
 20
1956.0000
 11
 324.0000
 21
1948.0000
  0
LINE
  8
200
  6
AUSGEZOGEN
 10
 332.0000
 20
1942.0000
 11
 324.0000
 21
1942.0000
  0
LINE
  8
200
  6
AUSGEZOGEN
 10
 332.0000
 20
1934.0000
 11
 332.0000
 21
1942.0000
  0
LINE
  8
200
  6
AUSGEZOGEN
 10
 324.0000
 20
1934.0000
 11
 332.0000
 21
1934.0000
  0
LINE
  8
200
  6
AUSGEZOGEN
 10
 324.0000
 20
1942.0000
 11
 324.0000
 21
1934.0000
  0
LINE
  8
200
  6
AUSGEZOGEN
 10
 383.0000
 20
1955.0000
 11
 337.0000
 21
1955.0000
  0
LINE
  8
200
  6
AUSGEZOGEN
 10
 383.0000
 20
1935.0000
 11
 383.0000
 21
1955.0000
  0
LINE
  8
200
  6
AUSGEZOGEN
 10
 337.0000
 20
1935.0000
 11
 383.0000
 21
1935.0000
  0
LINE
  8
200
  6
AUSGEZOGEN
 10
 337.0000
 20
1955.0000
 11
 337.0000
 21
1935.0000
  0
LINE
  8
200
  6
AUSGEZOGEN
 10
 780.0000
 20
  49.6000
 11
  75.8000
 21
  49.6000
  0
LINE
  8
200
  6
AUSGEZOGEN
 10
  75.8000
 20
1790.3000
 11
  75.8000
 21
  49.6000
  0
LINE
  8
200
  6
AUSGEZOGEN
 10
 780.0000
 20
1790.3000
 11
  39.5000
 21
1790.3000
  0
LINE
  8
200
  6
AUSGEZOGEN
 10
  39.5000
 20
  49.7000
 11
  75.8000
 21
  49.6000
  0
LINE
  8
200
  6
AUSGEZOGEN
 10
  10.3000
 20
  49.7000
 11
  40.3000
 21
  60.7000
  0
LINE
  8
200
  6
AUSGEZOGEN
 10
   0.0000
 20
  49.6000
 11
  10.3000
 21
  49.7000
  0
LINE
  8
200
  6
AUSGEZOGEN
 10
  40.3000
 20
1779.4000
 11
  10.1000
 21
1790.5000
  0
LINE
  8
200
  6
AUSGEZOGEN
 10
  40.3000
 20
  60.7000
 11
  40.3000
 21
1779.4000
  0
LINE
  8
200
  6
AUSGEZOGEN
 10
  10.2500
 20
  49.7000
 11
  40.3000
 21
  49.6000
  0
LINE
  8
200
  6
AUSGEZOGEN
 10
  40.3000
 20
1790.5000
 11
   0.0000
 21
1790.5000
  0
LINE
  8
200
  6
AUSGEZOGEN
 10
  40.3000
 20
1790.3000
 11
  40.3000
 21
1790.5000
  0
LINE
  8
200
  6
AUSGEZOGEN
 10
  40.3000
 20
  49.6000
 11
  40.3000
 21
  49.7000
  0
LINE
  8
200
  6
AUSGEZOGEN
 10
 780.0000
 20
1800.0000
 11
   0.0000
 21
1800.0000
  0
LINE
  8
200
  6
AUSGEZOGEN
 10
   0.0000
 20
   0.0000
 11
 780.0000
 21
   0.0000
  0
LINE
  8
200
  6
AUSGEZOGEN
 10
 780.0000
 20
2100.0000
 11
   0.0000
 21
2100.0000
  0
LINE
  8
200
  6
AUSGEZOGEN
 10
 780.0000
 20
   0.0000
 11
 780.0000
 21
2100.0000
  0
LINE
  8
200
  6
AUSGEZOGEN
 10
   0.0000
 20
1900.0000
 11
 780.0000
 21
1900.0000
  0
LINE
  8
200
  6
AUSGEZOGEN
 10
   0.0000
 20
   0.0000
 11
   0.0000
 21
2100.0000
  0
LINE
  8
200
  6
AUSGEZOGEN
 10
 780.0000
 20
2000.0000
 11
   0.0000
 21
2000.0000
  0
TEXT
  8
400
 10
 975.0000
 20
1980.0000
 40
  45.0000
  1
EZ: 230V 50Hz, Kabellänge 2,5m mit Schukostecker 0,63kW (OKFF 1900mm)
 50
   0.0000
 41
   0.6000
  7
STANDARD
  0
ATTDEF
  8
550
 10
10.0
 20
100.0
 30
0.0
 40
30
  1
CCO-HKMNE70-01
  2
CCO-HKMNE70-01V
  3
HKI-Nummer
 70
1
  0
TEXT
  8
510
 10
10.0
 20
-45.0
 30
0.0
 40
30
  1
CCO-HKMNE70-01
 50
0.0
 41
1.0
  7
STANDARD
  0
ENDSEC
  0
EOF
