  0
SECTION
  2
HEADER
  9
$ACADVER
  1
AC1009
  9
$INSBASE
 10
   0.0000
 20
   0.0000
 30
    0.0
  9
$EXTMIN
 10
-140.0000
 20
-139.5000
 30
   0.0000
  9
$EXTMAX
 10
3661.7430
 20
 900.0000
 30
   0.0000
  9
$LTSCALE
 40
1.00
  9
$PSLTSCALE
 70
1
  0
ENDSEC
  0
SECTION
  2
TABLES
  0
TABLE
  2
LTYPE
 70
  5
  0
LTYPE
  2
AUSGEZOGEN
 70
 64
  3
AUSGEZOGEN
 72
 65
 73
  0
 40
0.0
  0
LTYPE
  2
PUNKTIERT
 70
 64
  3
Gepunktet
 72
 65
 73
  2
 40
30.0000
 49
0.0
 49
-30.0000
  0
LTYPE
  2
STRICHLIERT
 70
 64
  3
Strichliert
 72
 65
 73
  2
 40
80.0000
 49
50.0000
 49
-30.0000
  0
LTYPE
  2
STRICHPUNKT
 70
 64
  3
Strichpunktet
 72
 65
 73
  4
 40
160.0000
 49
100.0000
 49
-30.0000
 49
0.0
 49
-30.0000
  0
LTYPE
  2
STRICHPUNKTPUNKT
 70
 64
  3
Strichpunktpunktet
 72
 65
 73
  6
 40
190.0000
 49
100.0000
 49
-30.0000
 49
0.0
 49
-30.0000
 49
0.0
 49
-30.0000
  0
ENDTAB
  0
TABLE
  2
LAYER
 70
5
  0
LAYER
  2
550
 70
  0
 62
  2
  6
AUSGEZOGEN
  0
LAYER
  2
510
 70
  0
 62
  2
  6
AUSGEZOGEN
  0
LAYER
  2
0
 70
  0
 62
  1
  6
AUSGEZOGEN
  0
LAYER
  2
200
 70
  0
 62
  7
  6
AUSGEZOGEN
999
SWS-Layer-Line-Width
999
0.20
  0
LAYER
  2
400
 70
  0
 62
  4
  6
AUSGEZOGEN
999
SWS-Layer-Line-Width
999
0.30
  0
ENDTAB
  0
TABLE
  2
STYLE
 70
  1
  0
STYLE
  2
STANDARD
 70
 64
 40
0.0
 41
1.0
 50
0.0
 71
  0
 42
30.0
  3
TXT.SHX
  4

  0
ENDTAB
  0
ENDSEC
  0
SECTION
  2
ENTITIES
  0
LINE
  8
400
  6
AUSGEZOGEN
 10
1232.0000
 20
 150.0000
 11
1736.5000
 21
 766.5000
  0
LINE
  8
400
  6
AUSGEZOGEN
 10
3456.1300
 20
 766.5000
 11
1736.5000
 21
 766.5000
  0
LINE
  8
400
  6
AUSGEZOGEN
 10
1232.0000
 20
 150.0000
 11
1232.0000
 21
 225.0000
  0
LINE
  8
400
  6
AUSGEZOGEN
 10
1232.0000
 20
  75.0000
 11
1232.0000
 21
 150.0000
  0
LINE
  8
400
  6
AUSGEZOGEN
 10
1307.0000
 20
 150.0000
 11
1232.0000
 21
 150.0000
  0
LINE
  8
400
  6
AUSGEZOGEN
 10
1157.0000
 20
 150.0000
 11
1232.0000
 21
 150.0000
  0
CIRCLE
  8
400
  6
AUSGEZOGEN
 10
1232.0000
 20
 150.0000
 40
  50.0000
  0
LINE
  8
200
  6
AUSGEZOGEN
 10
  15.0000
 20
 725.0000
 11
 510.0000
 21
 725.0000
  0
LINE
  8
200
  6
AUSGEZOGEN
 10
 510.0000
 20
 160.0000
 11
  15.0000
 21
 160.0000
  0
LINE
  8
200
  6
AUSGEZOGEN
 10
 510.0000
 20
 754.0000
 11
 510.0000
 21
 160.0000
  0
LINE
  8
200
  6
AUSGEZOGEN
 10
  15.0000
 20
 754.0000
 11
 510.0000
 21
 754.0000
  0
LINE
  8
200
  6
AUSGEZOGEN
 10
  15.0000
 20
 160.0000
 11
  15.0000
 21
 754.0000
  0
LINE
  8
200
  6
AUSGEZOGEN
 10
 510.0000
 20
 790.0000
 11
  15.0000
 21
 790.0000
  0
LINE
  8
200
  6
AUSGEZOGEN
 10
  15.0000
 20
 769.0000
 11
 510.0000
 21
 769.0000
  0
LINE
  8
200
  6
AUSGEZOGEN
 10
 510.0000
 20
 790.0000
 11
 510.0000
 21
 755.0000
  0
LINE
  8
200
  6
AUSGEZOGEN
 10
  15.0000
 20
 755.0000
 11
  15.0000
 21
 790.0000
  0
LINE
  8
200
  6
AUSGEZOGEN
 10
1035.0000
 20
 725.0000
 11
 540.0000
 21
 725.0000
  0
LINE
  8
200
  6
AUSGEZOGEN
 10
 540.0000
 20
 160.0000
 11
1035.0000
 21
 160.0000
  0
LINE
  8
200
  6
AUSGEZOGEN
 10
1035.0000
 20
 754.0000
 11
1035.0000
 21
 160.0000
  0
LINE
  8
200
  6
AUSGEZOGEN
 10
 540.0000
 20
 754.0000
 11
1035.0000
 21
 754.0000
  0
LINE
  8
200
  6
AUSGEZOGEN
 10
 540.0000
 20
 160.0000
 11
 540.0000
 21
 754.0000
  0
LINE
  8
200
  6
AUSGEZOGEN
 10
1035.0000
 20
 790.0000
 11
 540.0000
 21
 790.0000
  0
LINE
  8
200
  6
AUSGEZOGEN
 10
 540.0000
 20
 769.0000
 11
1035.0000
 21
 769.0000
  0
LINE
  8
200
  6
AUSGEZOGEN
 10
1035.0000
 20
 790.0000
 11
1035.0000
 21
 755.0000
  0
LINE
  8
200
  6
AUSGEZOGEN
 10
 540.0000
 20
 755.0000
 11
 540.0000
 21
 790.0000
  0
LINE
  8
200
  6
AUSGEZOGEN
 10
1400.0000
 20
 800.0000
 11
   0.0000
 21
 800.0000
  0
LINE
  8
200
  6
AUSGEZOGEN
 10
   0.0000
 20
 850.0000
 11
1400.0000
 21
 850.0000
  0
LINE
  8
200
  6
AUSGEZOGEN
 10
   0.0000
 20
 150.0000
 11
   0.0000
 21
 900.0000
  0
LINE
  8
200
  6
AUSGEZOGEN
 10
1400.0000
 20
 900.0000
 11
1400.0000
 21
 150.0000
  0
LINE
  8
200
  6
AUSGEZOGEN
 10
   0.0000
 20
 900.0000
 11
1400.0000
 21
 900.0000
  0
LINE
  8
200
  6
AUSGEZOGEN
 10
1385.0000
 20
 395.0000
 11
1067.0000
 21
 395.0000
  0
LINE
  8
200
  6
AUSGEZOGEN
 10
1067.0000
 20
 435.0000
 11
1385.0000
 21
 435.0000
  0
LINE
  8
200
  6
AUSGEZOGEN
 10
1385.0000
 20
 445.0000
 11
1067.0000
 21
 445.0000
  0
LINE
  8
200
  6
AUSGEZOGEN
 10
1067.0000
 20
 385.0000
 11
1385.0000
 21
 385.0000
  0
LINE
  8
200
  6
AUSGEZOGEN
 10
1127.0000
 20
 205.0000
 11
1147.0000
 21
 235.0000
  0
LINE
  8
200
  6
AUSGEZOGEN
 10
1167.0000
 20
 235.0000
 11
1147.0000
 21
 205.0000
  0
LINE
  8
200
  6
AUSGEZOGEN
 10
1167.0000
 20
 205.0000
 11
1187.0000
 21
 235.0000
  0
LINE
  8
200
  6
AUSGEZOGEN
 10
1207.0000
 20
 235.0000
 11
1187.0000
 21
 205.0000
  0
LINE
  8
200
  6
AUSGEZOGEN
 10
1207.0000
 20
 205.0000
 11
1227.0000
 21
 235.0000
  0
LINE
  8
200
  6
AUSGEZOGEN
 10
1247.0000
 20
 235.0000
 11
1227.0000
 21
 205.0000
  0
LINE
  8
200
  6
AUSGEZOGEN
 10
1247.0000
 20
 205.0000
 11
1267.0000
 21
 235.0000
  0
LINE
  8
200
  6
AUSGEZOGEN
 10
1287.0000
 20
 235.0000
 11
1267.0000
 21
 205.0000
  0
LINE
  8
200
  6
AUSGEZOGEN
 10
1287.0000
 20
 205.0000
 11
1307.0000
 21
 235.0000
  0
LINE
  8
200
  6
AUSGEZOGEN
 10
1327.0000
 20
 235.0000
 11
1307.0000
 21
 205.0000
  0
LINE
  8
200
  6
AUSGEZOGEN
 10
1327.0000
 20
 205.0000
 11
1347.0000
 21
 235.0000
  0
LINE
  8
200
  6
AUSGEZOGEN
 10
1347.0000
 20
 275.0000
 11
1327.0000
 21
 245.0000
  0
LINE
  8
200
  6
AUSGEZOGEN
 10
1307.0000
 20
 245.0000
 11
1327.0000
 21
 275.0000
  0
LINE
  8
200
  6
AUSGEZOGEN
 10
1307.0000
 20
 275.0000
 11
1287.0000
 21
 245.0000
  0
LINE
  8
200
  6
AUSGEZOGEN
 10
1267.0000
 20
 245.0000
 11
1287.0000
 21
 275.0000
  0
LINE
  8
200
  6
AUSGEZOGEN
 10
1267.0000
 20
 275.0000
 11
1247.0000
 21
 245.0000
  0
LINE
  8
200
  6
AUSGEZOGEN
 10
1227.0000
 20
 245.0000
 11
1247.0000
 21
 275.0000
  0
LINE
  8
200
  6
AUSGEZOGEN
 10
1227.0000
 20
 275.0000
 11
1207.0000
 21
 245.0000
  0
LINE
  8
200
  6
AUSGEZOGEN
 10
1187.0000
 20
 245.0000
 11
1207.0000
 21
 275.0000
  0
LINE
  8
200
  6
AUSGEZOGEN
 10
1187.0000
 20
 275.0000
 11
1167.0000
 21
 245.0000
  0
LINE
  8
200
  6
AUSGEZOGEN
 10
1147.0000
 20
 245.0000
 11
1167.0000
 21
 275.0000
  0
LINE
  8
200
  6
AUSGEZOGEN
 10
1147.0000
 20
 275.0000
 11
1127.0000
 21
 245.0000
  0
LINE
  8
200
  6
AUSGEZOGEN
 10
1147.0000
 20
 315.0000
 11
1127.0000
 21
 285.0000
  0
LINE
  8
200
  6
AUSGEZOGEN
 10
1147.0000
 20
 285.0000
 11
1167.0000
 21
 315.0000
  0
LINE
  8
200
  6
AUSGEZOGEN
 10
1187.0000
 20
 315.0000
 11
1167.0000
 21
 285.0000
  0
LINE
  8
200
  6
AUSGEZOGEN
 10
1187.0000
 20
 285.0000
 11
1207.0000
 21
 315.0000
  0
LINE
  8
200
  6
AUSGEZOGEN
 10
1227.0000
 20
 315.0000
 11
1207.0000
 21
 285.0000
  0
LINE
  8
200
  6
AUSGEZOGEN
 10
1227.0000
 20
 285.0000
 11
1247.0000
 21
 315.0000
  0
LINE
  8
200
  6
AUSGEZOGEN
 10
1267.0000
 20
 315.0000
 11
1247.0000
 21
 285.0000
  0
LINE
  8
200
  6
AUSGEZOGEN
 10
1267.0000
 20
 285.0000
 11
1287.0000
 21
 315.0000
  0
LINE
  8
200
  6
AUSGEZOGEN
 10
1307.0000
 20
 315.0000
 11
1287.0000
 21
 285.0000
  0
LINE
  8
200
  6
AUSGEZOGEN
 10
1307.0000
 20
 285.0000
 11
1327.0000
 21
 315.0000
  0
LINE
  8
200
  6
AUSGEZOGEN
 10
1347.0000
 20
 315.0000
 11
1327.0000
 21
 285.0000
  0
LINE
  8
200
  6
AUSGEZOGEN
 10
1347.0000
 20
 355.0000
 11
1327.0000
 21
 325.0000
  0
LINE
  8
200
  6
AUSGEZOGEN
 10
1307.0000
 20
 325.0000
 11
1327.0000
 21
 355.0000
  0
LINE
  8
200
  6
AUSGEZOGEN
 10
1307.0000
 20
 355.0000
 11
1287.0000
 21
 325.0000
  0
LINE
  8
200
  6
AUSGEZOGEN
 10
1267.0000
 20
 325.0000
 11
1287.0000
 21
 355.0000
  0
LINE
  8
200
  6
AUSGEZOGEN
 10
1267.0000
 20
 355.0000
 11
1247.0000
 21
 325.0000
  0
LINE
  8
200
  6
AUSGEZOGEN
 10
1227.0000
 20
 325.0000
 11
1247.0000
 21
 355.0000
  0
LINE
  8
200
  6
AUSGEZOGEN
 10
1227.0000
 20
 355.0000
 11
1207.0000
 21
 325.0000
  0
LINE
  8
200
  6
AUSGEZOGEN
 10
1187.0000
 20
 325.0000
 11
1207.0000
 21
 355.0000
  0
LINE
  8
200
  6
AUSGEZOGEN
 10
1187.0000
 20
 355.0000
 11
1167.0000
 21
 325.0000
  0
LINE
  8
200
  6
AUSGEZOGEN
 10
1147.0000
 20
 325.0000
 11
1167.0000
 21
 355.0000
  0
LINE
  8
200
  6
AUSGEZOGEN
 10
1147.0000
 20
 355.0000
 11
1127.0000
 21
 325.0000
  0
LINE
  8
200
  6
AUSGEZOGEN
 10
1327.0000
 20
 505.0000
 11
1307.0000
 21
 475.0000
  0
LINE
  8
200
  6
AUSGEZOGEN
 10
1287.0000
 20
 475.0000
 11
1307.0000
 21
 505.0000
  0
LINE
  8
200
  6
AUSGEZOGEN
 10
1287.0000
 20
 505.0000
 11
1267.0000
 21
 475.0000
  0
LINE
  8
200
  6
AUSGEZOGEN
 10
1247.0000
 20
 475.0000
 11
1267.0000
 21
 505.0000
  0
LINE
  8
200
  6
AUSGEZOGEN
 10
1247.0000
 20
 505.0000
 11
1227.0000
 21
 475.0000
  0
LINE
  8
200
  6
AUSGEZOGEN
 10
1207.0000
 20
 475.0000
 11
1227.0000
 21
 505.0000
  0
LINE
  8
200
  6
AUSGEZOGEN
 10
1207.0000
 20
 505.0000
 11
1187.0000
 21
 475.0000
  0
LINE
  8
200
  6
AUSGEZOGEN
 10
1167.0000
 20
 475.0000
 11
1187.0000
 21
 505.0000
  0
LINE
  8
200
  6
AUSGEZOGEN
 10
1167.0000
 20
 505.0000
 11
1147.0000
 21
 475.0000
  0
LINE
  8
200
  6
AUSGEZOGEN
 10
1167.0000
 20
 545.0000
 11
1147.0000
 21
 515.0000
  0
LINE
  8
200
  6
AUSGEZOGEN
 10
1167.0000
 20
 515.0000
 11
1187.0000
 21
 545.0000
  0
LINE
  8
200
  6
AUSGEZOGEN
 10
1207.0000
 20
 545.0000
 11
1187.0000
 21
 515.0000
  0
LINE
  8
200
  6
AUSGEZOGEN
 10
1207.0000
 20
 515.0000
 11
1227.0000
 21
 545.0000
  0
LINE
  8
200
  6
AUSGEZOGEN
 10
1247.0000
 20
 545.0000
 11
1227.0000
 21
 515.0000
  0
LINE
  8
200
  6
AUSGEZOGEN
 10
1247.0000
 20
 515.0000
 11
1267.0000
 21
 545.0000
  0
LINE
  8
200
  6
AUSGEZOGEN
 10
1287.0000
 20
 545.0000
 11
1267.0000
 21
 515.0000
  0
LINE
  8
200
  6
AUSGEZOGEN
 10
1287.0000
 20
 515.0000
 11
1307.0000
 21
 545.0000
  0
LINE
  8
200
  6
AUSGEZOGEN
 10
1327.0000
 20
 545.0000
 11
1307.0000
 21
 515.0000
  0
LINE
  8
200
  6
AUSGEZOGEN
 10
1327.0000
 20
 515.0000
 11
1347.0000
 21
 545.0000
  0
LINE
  8
200
  6
AUSGEZOGEN
 10
1347.0000
 20
 585.0000
 11
1327.0000
 21
 555.0000
  0
LINE
  8
200
  6
AUSGEZOGEN
 10
1307.0000
 20
 555.0000
 11
1327.0000
 21
 585.0000
  0
LINE
  8
200
  6
AUSGEZOGEN
 10
1307.0000
 20
 585.0000
 11
1287.0000
 21
 555.0000
  0
LINE
  8
200
  6
AUSGEZOGEN
 10
1267.0000
 20
 555.0000
 11
1287.0000
 21
 585.0000
  0
LINE
  8
200
  6
AUSGEZOGEN
 10
1267.0000
 20
 585.0000
 11
1247.0000
 21
 555.0000
  0
LINE
  8
200
  6
AUSGEZOGEN
 10
1227.0000
 20
 555.0000
 11
1247.0000
 21
 585.0000
  0
LINE
  8
200
  6
AUSGEZOGEN
 10
1227.0000
 20
 585.0000
 11
1207.0000
 21
 555.0000
  0
LINE
  8
200
  6
AUSGEZOGEN
 10
1187.0000
 20
 555.0000
 11
1207.0000
 21
 585.0000
  0
LINE
  8
200
  6
AUSGEZOGEN
 10
1187.0000
 20
 585.0000
 11
1167.0000
 21
 555.0000
  0
LINE
  8
200
  6
AUSGEZOGEN
 10
1147.0000
 20
 555.0000
 11
1167.0000
 21
 585.0000
  0
LINE
  8
200
  6
AUSGEZOGEN
 10
1347.0000
 20
 625.0000
 11
1327.0000
 21
 595.0000
  0
LINE
  8
200
  6
AUSGEZOGEN
 10
1307.0000
 20
 595.0000
 11
1327.0000
 21
 625.0000
  0
LINE
  8
200
  6
AUSGEZOGEN
 10
1307.0000
 20
 625.0000
 11
1287.0000
 21
 595.0000
  0
LINE
  8
200
  6
AUSGEZOGEN
 10
1267.0000
 20
 595.0000
 11
1287.0000
 21
 625.0000
  0
LINE
  8
200
  6
AUSGEZOGEN
 10
1267.0000
 20
 625.0000
 11
1247.0000
 21
 595.0000
  0
LINE
  8
200
  6
AUSGEZOGEN
 10
1227.0000
 20
 595.0000
 11
1247.0000
 21
 625.0000
  0
LINE
  8
200
  6
AUSGEZOGEN
 10
1227.0000
 20
 625.0000
 11
1207.0000
 21
 595.0000
  0
LINE
  8
200
  6
AUSGEZOGEN
 10
1187.0000
 20
 595.0000
 11
1207.0000
 21
 625.0000
  0
LINE
  8
200
  6
AUSGEZOGEN
 10
1187.0000
 20
 625.0000
 11
1167.0000
 21
 595.0000
  0
LINE
  8
200
  6
AUSGEZOGEN
 10
1147.0000
 20
 595.0000
 11
1167.0000
 21
 625.0000
  0
LINE
  8
200
  6
AUSGEZOGEN
 10
1147.0000
 20
 625.0000
 11
1127.0000
 21
 595.0000
  0
LINE
  8
200
  6
AUSGEZOGEN
 10
1127.0000
 20
 555.0000
 11
1147.0000
 21
 585.0000
  0
LINE
  8
200
  6
AUSGEZOGEN
 10
1127.0000
 20
 515.0000
 11
1147.0000
 21
 545.0000
  0
LINE
  8
200
  6
AUSGEZOGEN
 10
1127.0000
 20
 475.0000
 11
1147.0000
 21
 505.0000
  0
LINE
  8
200
  6
AUSGEZOGEN
 10
1127.0000
 20
 505.0000
 11
1107.0000
 21
 475.0000
  0
LINE
  8
200
  6
AUSGEZOGEN
 10
1127.0000
 20
 545.0000
 11
1107.0000
 21
 515.0000
  0
LINE
  8
200
  6
AUSGEZOGEN
 10
1127.0000
 20
 585.0000
 11
1107.0000
 21
 555.0000
  0
LINE
  8
200
  6
AUSGEZOGEN
 10
1127.0000
 20
 625.0000
 11
1107.0000
 21
 595.0000
  0
LINE
  8
200
  6
AUSGEZOGEN
 10
1107.0000
 20
 325.0000
 11
1127.0000
 21
 355.0000
  0
LINE
  8
200
  6
AUSGEZOGEN
 10
1107.0000
 20
 285.0000
 11
1127.0000
 21
 315.0000
  0
LINE
  8
200
  6
AUSGEZOGEN
 10
1107.0000
 20
 245.0000
 11
1127.0000
 21
 275.0000
  0
LINE
  8
200
  6
AUSGEZOGEN
 10
1107.0000
 20
 205.0000
 11
1127.0000
 21
 235.0000
  0
LINE
  8
200
  6
AUSGEZOGEN
 10
1385.0000
 20
 670.0000
 11
1067.0000
 21
 670.0000
  0
LINE
  8
200
  6
AUSGEZOGEN
 10
1129.0000
 20
 748.0000
 11
1135.0000
 21
 748.0000
  0
LINE
  8
200
  6
AUSGEZOGEN
 10
1129.0000
 20
 742.0000
 11
1129.0000
 21
 748.0000
  0
LINE
  8
200
  6
AUSGEZOGEN
 10
1135.0000
 20
 742.0000
 11
1129.0000
 21
 742.0000
  0
LINE
  8
200
  6
AUSGEZOGEN
 10
1135.0000
 20
 748.0000
 11
1135.0000
 21
 742.0000
  0
LINE
  8
200
  6
AUSGEZOGEN
 10
1124.0000
 20
 733.0000
 11
1139.0000
 21
 733.0000
  0
LINE
  8
200
  6
AUSGEZOGEN
 10
1124.0000
 20
 757.0000
 11
1124.0000
 21
 733.0000
  0
LINE
  8
200
  6
AUSGEZOGEN
 10
1139.0000
 20
 757.0000
 11
1124.0000
 21
 757.0000
  0
LINE
  8
200
  6
AUSGEZOGEN
 10
1139.0000
 20
 733.0000
 11
1139.0000
 21
 757.0000
  0
LINE
  8
200
  6
AUSGEZOGEN
 10
1153.0000
 20
 743.0000
 11
1153.0000
 21
 733.0000
  0
LINE
  8
200
  6
AUSGEZOGEN
 10
1143.0000
 20
 733.0000
 11
1153.0000
 21
 733.0000
  0
LINE
  8
200
  6
AUSGEZOGEN
 10
1143.0000
 20
 743.0000
 11
1143.0000
 21
 733.0000
  0
LINE
  8
200
  6
AUSGEZOGEN
 10
1153.0000
 20
 743.0000
 11
1143.0000
 21
 743.0000
  0
LINE
  8
200
  6
AUSGEZOGEN
 10
1143.0000
 20
 747.0000
 11
1153.0000
 21
 747.0000
  0
LINE
  8
200
  6
AUSGEZOGEN
 10
1143.0000
 20
 757.0000
 11
1143.0000
 21
 747.0000
  0
LINE
  8
200
  6
AUSGEZOGEN
 10
1153.0000
 20
 757.0000
 11
1143.0000
 21
 757.0000
  0
LINE
  8
200
  6
AUSGEZOGEN
 10
1153.0000
 20
 747.0000
 11
1153.0000
 21
 757.0000
  0
LINE
  8
200
  6
AUSGEZOGEN
 10
1167.0000
 20
 733.0000
 11
1167.0000
 21
 743.0000
  0
LINE
  8
200
  6
AUSGEZOGEN
 10
1157.0000
 20
 743.0000
 11
1167.0000
 21
 743.0000
  0
LINE
  8
200
  6
AUSGEZOGEN
 10
1157.0000
 20
 733.0000
 11
1157.0000
 21
 743.0000
  0
LINE
  8
200
  6
AUSGEZOGEN
 10
1167.0000
 20
 733.0000
 11
1157.0000
 21
 733.0000
  0
LINE
  8
200
  6
AUSGEZOGEN
 10
1167.0000
 20
 757.0000
 11
1167.0000
 21
 747.0000
  0
LINE
  8
200
  6
AUSGEZOGEN
 10
1157.0000
 20
 747.0000
 11
1167.0000
 21
 747.0000
  0
LINE
  8
200
  6
AUSGEZOGEN
 10
1157.0000
 20
 757.0000
 11
1157.0000
 21
 747.0000
  0
LINE
  8
200
  6
AUSGEZOGEN
 10
1167.0000
 20
 757.0000
 11
1157.0000
 21
 757.0000
  0
LINE
  8
200
  6
AUSGEZOGEN
 10
1115.0000
 20
 760.0000
 11
1175.0000
 21
 760.0000
  0
LINE
  8
200
  6
AUSGEZOGEN
 10
1115.0000
 20
 730.0000
 11
1115.0000
 21
 760.0000
  0
LINE
  8
200
  6
AUSGEZOGEN
 10
1175.0000
 20
 730.0000
 11
1115.0000
 21
 730.0000
  0
LINE
  8
200
  6
AUSGEZOGEN
 10
1175.0000
 20
 760.0000
 11
1175.0000
 21
 730.0000
  0
LINE
  8
200
  6
AUSGEZOGEN
 10
1105.0000
 20
 725.0000
 11
1105.0000
 21
 765.0000
  0
LINE
  8
200
  6
AUSGEZOGEN
 10
1185.0000
 20
 765.0000
 11
1105.0000
 21
 765.0000
  0
LINE
  8
200
  6
AUSGEZOGEN
 10
1185.0000
 20
 725.0000
 11
1185.0000
 21
 765.0000
  0
LINE
  8
200
  6
AUSGEZOGEN
 10
1105.0000
 20
 725.0000
 11
1185.0000
 21
 725.0000
  0
LINE
  8
200
  6
AUSGEZOGEN
 10
1265.0000
 20
 745.0000
 11
1225.0000
 21
 745.0000
  0
LINE
  8
200
  6
AUSGEZOGEN
 10
1225.0000
 20
 725.0000
 11
1225.0000
 21
 765.0000
  0
LINE
  8
200
  6
AUSGEZOGEN
 10
1265.0000
 20
 765.0000
 11
1225.0000
 21
 765.0000
  0
LINE
  8
200
  6
AUSGEZOGEN
 10
1265.0000
 20
 725.0000
 11
1265.0000
 21
 765.0000
  0
LINE
  8
200
  6
AUSGEZOGEN
 10
1225.0000
 20
 725.0000
 11
1265.0000
 21
 725.0000
  0
LINE
  8
200
  6
AUSGEZOGEN
 10
1385.0000
 20
 160.0000
 11
1067.0000
 21
 160.0000
  0
LINE
  8
200
  6
AUSGEZOGEN
 10
1067.0000
 20
 790.0000
 11
1067.0000
 21
 160.0000
  0
LINE
  8
200
  6
AUSGEZOGEN
 10
1385.0000
 20
 790.0000
 11
1067.0000
 21
 790.0000
  0
LINE
  8
200
  6
AUSGEZOGEN
 10
1385.0000
 20
 160.0000
 11
1385.0000
 21
 790.0000
  0
LINE
  8
200
  6
AUSGEZOGEN
 10
1067.0000
 20
 700.0000
 11
1385.0000
 21
 700.0000
  0
LINE
  8
200
  6
AUSGEZOGEN
 10
  60.0000
 20
   0.0000
 11
  60.0000
 21
   5.0000
  0
LINE
  8
200
  6
AUSGEZOGEN
 10
 100.0000
 20
   5.0000
 11
 100.0000
 21
   0.0000
  0
LINE
  8
200
  6
AUSGEZOGEN
 10
  60.0000
 20
   0.0000
 11
 100.0000
 21
   0.0000
  0
LINE
  8
200
  6
AUSGEZOGEN
 10
  65.0000
 20
  15.0000
 11
  65.0000
 21
   5.0000
  0
LINE
  8
200
  6
AUSGEZOGEN
 10
  95.0000
 20
   5.0000
 11
  95.0000
 21
  15.0000
  0
LINE
  8
200
  6
AUSGEZOGEN
 10
  60.0000
 20
   5.0000
 11
 100.0000
 21
   5.0000
  0
LINE
  8
200
  6
AUSGEZOGEN
 10
 100.0000
 20
  15.0000
 11
  60.0000
 21
  15.0000
  0
LINE
  8
200
  6
AUSGEZOGEN
 10
  60.0000
 20
 150.0000
 11
  60.0000
 21
  15.0000
  0
LINE
  8
200
  6
AUSGEZOGEN
 10
 100.0000
 20
  15.0000
 11
 100.0000
 21
 150.0000
  0
LINE
  8
200
  6
AUSGEZOGEN
 10
  60.0000
 20
  20.0000
 11
 100.0000
 21
  20.0000
  0
LINE
  8
200
  6
AUSGEZOGEN
 10
1007.0000
 20
   0.0000
 11
1007.0000
 21
   5.0000
  0
LINE
  8
200
  6
AUSGEZOGEN
 10
1047.0000
 20
   5.0000
 11
1047.0000
 21
   0.0000
  0
LINE
  8
200
  6
AUSGEZOGEN
 10
1007.0000
 20
   0.0000
 11
1047.0000
 21
   0.0000
  0
LINE
  8
200
  6
AUSGEZOGEN
 10
1012.0000
 20
  15.0000
 11
1012.0000
 21
   5.0000
  0
LINE
  8
200
  6
AUSGEZOGEN
 10
1042.0000
 20
   5.0000
 11
1042.0000
 21
  15.0000
  0
LINE
  8
200
  6
AUSGEZOGEN
 10
1007.0000
 20
   5.0000
 11
1047.0000
 21
   5.0000
  0
LINE
  8
200
  6
AUSGEZOGEN
 10
1047.0000
 20
  15.0000
 11
1007.0000
 21
  15.0000
  0
LINE
  8
200
  6
AUSGEZOGEN
 10
1007.0000
 20
 150.0000
 11
1007.0000
 21
  15.0000
  0
LINE
  8
200
  6
AUSGEZOGEN
 10
   0.0000
 20
 150.0000
 11
1400.0000
 21
 150.0000
  0
LINE
  8
200
  6
AUSGEZOGEN
 10
1047.0000
 20
  15.0000
 11
1047.0000
 21
 150.0000
  0
LINE
  8
200
  6
AUSGEZOGEN
 10
1007.0000
 20
  20.0000
 11
1047.0000
 21
  20.0000
  0
TEXT
  8
400
 10
1750.0000
 20
 780.0000
 40
  45.0000
  1
EZ: 230V 50Hz, Kabellänge 2,5m mit Schukostecker 0,44kW (OKFF 150mm)
 50
   0.0000
 41
   0.6000
  7
STANDARD
  0
ATTDEF
  8
550
 10
10.0
 20
100.0
 30
0.0
 40
30
  1
CCO-KTM824661
  2
CCO-KTM824661V
  3
HKI-Nummer
 70
1
  0
TEXT
  8
510
 10
10.0
 20
-45.0
 30
0.0
 40
30
  1
CCO-KTM824661
 50
0.0
 41
1.0
  7
STANDARD
  0
ENDSEC
  0
EOF
